Oops, an error
Loading. Please wait.

Migraine tab

version 2
version 2

Whole song

Interactive

36,348 views 165 this week
1 commentread comment
1 2 3 4 5
x 5
add to favorites
×
Save as Personal and add changes to this tab that will be seen only by you. Learn more ›
×
You can save this tab as Personal to edit and correct it or add notes. All changes will be seen only by you. Learn more »
launch autoscroll
font size
0
reset
how to read this tab
guitar tuner
edit
Autoscroll
slow
fast
+/-
esc
set tempo
stop
Author
Difficulty
intermediate
[Intro]

guitar 1

e|-------------------------------------------------------------------------------|
B|-------------------------------------------------------------------------------|
G|-------------------------------------------------------------------------------|
D|-----12-11-11-11-12-12-12---11-11-11-11-12-12--11-12--11-11-11-11-12-12-12-12--|
A|-------------------------------------------------------------------------------|
E|-------------------------------------------------------------------------------|

e|-----------------------------------|-----------------------------------------|
B|-----------------------------------|-----------------------------------------|
G|--7779991010-14141414-16-10101010--|-7779991111-1414141--1616-12121212-11-12-|
D|--7779991010-14141414-16-10101010--|-7779991111-14141414-1616-12121212-11-12-|
A|--5557779999-12121212-14-9999999---|-5557779999-12121212-1414-10101010-9--10-|
E|-----------------------------------|-----------------------------------------|


guitar 2
e|--------------------------------------|----------------------------------------|
B|----------7777-7/10-10101212\77777777-|-----------7777-7/10-10101212\88888778--|
G|--7779999-----------------------------|--7779999-------------------------------|
D|--------------------------------------|----------------------------------------|
A|--------------------------------------|----------------------------------------|
E|--------------------------------------|----------------------------------------|


[Verse 1]

guitar 1

PALM MUTE 
     Oo nga pala?.. hindi nga pala tayo.....Hanggang dito lang ako,nangangarap na mapa-sayo..
e|--------------------------------------------------------------|
B|--------------------------------------------------------------|
G|-777777777777777444444444444444-------------------------------|
D|-777777777777777444444444444444-4444444444444455555555555555--|
A|-555555555555555222222222222222-4444444444444445555555555555--|
E|--------------------------------2222222222222223333333333333--|


    Hindi sinasadya..... Na hanapin pa ang lugar ko Asan nga ba ako? andiyan pa ba sa iyo?
e|---------------------------------------------------------------3---|
B|---------------------------------------------------------------3---|
G|-777777777777777444444444444444--------------------------------0---|
D|-777777777777777444444444444444-4444444444444455555555555555---0---|
A|-555555555555555222222222222222-4444444444444455555555555555---2---|
E|--------------------------------2222222222222223333333333333---3---|

hummn... just listen 2 d music pra malaman nyu  kun pano pag pasok nyo d2
guitar2
e|------------------------2-----------2------------5-----5-------5---|
B|-------7------------3-----3-------2---2------3-----3-----------3---|
G|----7----7--------2---2-----2---2-------2--3---3-----3---------3---|
D|--7--7----7--------------------------------------------------------|
A|-------------------------------------------------------------------|
E|-------------------------------------------------------------------|


guitar3(me naririnig ako n gni2 sa song na e2 kea ginawan ko xia ng tabs)
e|--------------------------|   
B|--------------------------|   
G|--------------------------|   
D|--12-11-12-11-11-12-11-12-|7x 
A|--------------------------|   
E|--------------------------|   

e|----------------------|
B|----------------------|
G|----------------------|
D|--121212-141414-1616--|
A|--101010-121212-1414--|
E|----------------------|


[Chorus]

   Nahihilo......Nalilito....Asan ba ko sayo? aasa ba ko sayo?
e|--------------------------------------------------------------|
B|--------------------------------------------------------------|
G|-777777777777777444444444444444-------------------------------|
D|-777777777777777444444444444444-4444444444444455555555555555--|
A|-555555555555555222222222222222-4444444444444445555555555555--|
E|--------------------------------2222222222222223333333333333--|

guitar 2
e|---------------------|                
B|--8-7-8-7--7-8-7-----|                
G|---------------------|   3 x  
D|---------------------|        
A|---------------------|
E|---------------------|        


e|----------------------------|
B|--8-7-8-7--7-8-7--88888-----|
G|----------------------------|
D|----------------------------|
A|----------------------------|
E|----------------------------|


[Verse 2]

 Nasusuka ako...  Kinakain na ang loob..Masakit ng mga tuhod.. kailangan bang lumuhod....
e|--------------------------------------------------------------|
B|--------------------------------------------------------------|
G|-777777777777777444444444444444-------------------------------|
D|-777777777777777444444444444444-4444444444444455555555555555--|
A|-555555555555555222222222222222-4444444444444445555555555555--|
E|--------------------------------2222222222222223333333333333--|


hummn... just listen 2 d music pra malaman nyu  kun pano pag pasok nyo d2
guitar2
e|------------------------2-----------2------------5-----5-----------|
B|-------7------------3-----3-------2---2------3-----3---------------|
G|----7----7--------2---2-----2---2-------2--3---3-----3-------------|
D|--7--7----7--------------------------------------------------------|
A|-------------------------------------------------------------------|
E|-------------------------------------------------------------------|

guitar 3:
e|--------------------------|   
B|--------------------------|   
G|--------------------------|   
D|--12-11-12-11-11-12-11-12-|7x 
A|--------------------------|   
E|--------------------------|   


guitar 1

   Gusto ko lang naman... Yung totoo.....Ung tipong ang sagot ay hindi rin isang tanong..
e|--------------------------------------------------------------|
B|--------------------------------------------------------------|
G|-777777777777777444444444444444-------------------------------|
D|-777777777777777444444444444444-4444444444444455555555555555--|
A|-555555555555555222222222222222-4444444444444445555555555555--|
E|--------------------------------2222222222222223333333333333--|


guitar 2
e|------------------------------------------------------3-3-3-3-3-3-3-------------------|
B|---7-7---5-5---8-8-7-7-------------7--7-7-7-7-7-7-7---4-4-4-4-4-4-4-------------------|
G|---------------------------------7----7-7-7-7-7-7-7---------------------777-9999-1111-|
D|------------------------------------------------------------------------777-9999-1111-|
A|------------------------------------------------------------------------555-7777-9-9--|
E|--------------------------------------------------------------------------------------|


guitar 3 
e|--------------------------|   
B|--------------------------|   
G|--------------------------|   
D|--12-11-12-11-11-12-11-12-|7x 
A|--------------------------|   
E|--------------------------|   


e|----------------------|
B|----------------------|
G|----------------------|
D|--121212-141414-1616--|
A|--101010-121212-1414--|
E|----------------------|


[Chorus]

   Nahihilo......Nalilito....Asan ba ko sayo? aasa ba ko sayo?
e|--------------------------------------------------------------|
B|--------------------------------------------------------------|
G|-777777777777777444444444444444-------------------------------|
D|-777777777777777444444444444444-4444444444444455555555555555--|
A|-555555555555555222222222222222-4444444444444445555555555555--|
E|--------------------------------2222222222222223333333333333--|

guitar 2
e|---------------------|                
B|--8-7-8-7--7-8-7-----|                
G|---------------------|   3 x  
D|---------------------|                
A|---------------------|                
E|---------------------|                

e|----------------------------|
B|--8-7-8-7--7-8-7--88888-----|
G|----------------------------|
D|----------------------------|
A|----------------------------|
E|----------------------------|


guitar 1
   Nahihilo......Nalilito....Asan ba ko sayo? aasa ba ko sayo?
e|--------------------------------------------------------------|
B|--------------------------------------------------------------|
G|-777777777777777444444444444444-------------------------------|
D|-777777777777777444444444444444-4444444444444455555555555555--|
A|-555555555555555222222222222222-4444444444444445555555555555--|
E|--------------------------------2222222222222223333333333333--|

guitar 2
e|---------------------|                
B|--8-7-8-7--7-8-7-----|                
G|---------------------|   3 x  
D|---------------------|                
A|---------------------|                
E|---------------------|                

e|----------------------------|
B|--8-7-8-7--7-8-7--88888-----|
G|----------------------------|
D|----------------------------|
A|----------------------------|
E|----------------------------|


[Bridge]

  guitar 1 
Dahil..... di na.makatulog (makatulog)
e|--------------------------------------------------------------|
B|--------------------------------------------------------------|
G|--------------------------------------------------------------|
D|-777777777777777444444444444444-------------------------------|
A|-555555555555555222222222222222-4444444444444445555555555555--|
E|--------------------------------2222222222222223333333333333--|


 guitar 1           
Dahil......Hindi na makakain (makakain)
e|--------------------------------------------------------------|
B|--------------------------------------------------------------|
G|--------------------------------------------------------------|
D|-777777777777777444444444444444-------------------------------|
A|-555555555555555222222222222222-4444444444444445555555555555--|
E|--------------------------------2222222222222223333333333333--|

guitar 3 or guitar 2  ( hindi ko kc sure kun alin sa 2)

e|---------------------------|  
B|---------------------------|  
G|---------------------------|  
D|--11-12-12-112-11-12-11-12-| paulit ulit lang yan....
A|---------------------------|
E|---------------------------|


GUITAR 1
Dahil.hindi na makatawa (makatawa)

e|-----------------------------------------------------|
B|-----------------------------------------------------|
G|-7777777777--9999999999--111111111--121212121212-----|
D|-xxxxxxxxxx--xxxxxxxxxx--xxxxxxxxx--xxxxxxxxxxxx-----|
A|-5555555555--7777777777--99999999---101010101010-----|
E|-----------------------------------------------------|

Dahil hindi..na.....ahhhh…

e|-------------------------------------------|  
B|-------------------------------------------|
G|-7777777777--9999999999--11111111111--12---|
D|-xxxxxxxxxx--xxxxxxxxxx--xxxxxxxxxxx--xx---|
A|-5555555555--7777777777--9999999999---10---|
E|-------------------------------------------|          
                                                

Biglang.... pasok ne2 guitar 2.. bago mag ( oo nga pla )
guitar 2                         sabay pasok ng ne2 pag tapos nung part na ( oo nga pala ? )
e|--5-------5-------5-----5---|  |---------------|
B|----------------------------|  |-------7-------|
G|----7-------7-------7-------|  |-----7---------|
D|------7-------7-------7-----|  |---7-----------|  <<<<,harmonic poh xia
A|----------------------------|  |---------------|
E|----------------------------|  |---------------|


guitar 1
     Oo nga pala?.. hindi nga pala tayo.....Hanggang dito lang ako....
e|--------------------------------------------------------------|
B|--------------------------------------------------------------|
G|-777777777777777444444444444444-------------------------------|
D|-777777777777777444444444444444-4444444444444455555555555555--|
A|-555555555555555222222222222222-4444444444444445555555555555--|
E|--------------------------------2222222222222223333333333333--|


[Chorus]

guitar 1
   Nahihilo......Nalilito....Asan ba ko sayo? aasa ba ko sayo?
e|--------------------------------------------------------------|
B|--------------------------------------------------------------|
G|-777777777777777444444444444444-------------------------------|
D|-777777777777777444444444444444-4444444444444455555555555555--|
A|-555555555555555222222222222222-4444444444444445555555555555--|
E|--------------------------------2222222222222223333333333333--|

guitar 2
e|---------------------|                
B|--8-7-8-7--7-8-7-----|                
G|---------------------|   3 x  
D|---------------------|                
A|---------------------|                
E|---------------------|                

e|----------------------------|
B|--8-7-8-7--7-8-7--88888-----|
G|----------------------------|
D|----------------------------|
A|----------------------------|
E|----------------------------|


GUITAR 1
   Nahihilo......Nalilito....Asan ba ko sayo? aasa ba ko sayo?
e|--------------------------------------------------------------|
B|--------------------------------------------------------------|
G|-777777777777777444444444444444-------------------------------|
D|-777777777777777444444444444444-4444444444444455555555555555--|
A|-555555555555555222222222222222-4444444444444445555555555555--|
E|--------------------------------2222222222222223333333333333--|

guitar 2
e|---------------------|                
B|--8-7-8-7--7-8-7-----|                
G|---------------------|   3 x  
D|---------------------|                
A|---------------------|        
E|---------------------|

e|----------------------------|
B|--8-7-8-7--7-8-7--88888-----|
G|----------------------------|
D|----------------------------|
A|----------------------------|
E|----------------------------|         

chorus let

guitar 1
   Nahihilo......Nalilito....Asan ba ko sayo? aasa ba ko sayo?
e|--------------------------------------------------------------|
B|--------------------------------------------------------------|
G|-777777777777777444444444444444-------------------------------|
D|-777777777777777444444444444444-4444444444444455555555555555--|
A|-555555555555555222222222222222-4444444444444445555555555555--|
E|--------------------------------2222222222222223333333333333--|

guitar 2
e|---------------------|                
B|--8-7-8-7--7-8-7-----|                
G|---------------------|   3 x  
D|---------------------|                
A|---------------------|                
E|---------------------|                


e|----------------------------|
B|--8-7-8-7--7-8-7--88888-----|
G|----------------------------|
D|----------------------------|
A|----------------------------|
E|----------------------------|


GUITAR 1
   Nahihilo......Nalilito....Asan ba ko sayo? aasa ba ko sayo?
e|--------------------------------------------------------------|
B|--------------------------------------------------------------|
G|-777777777777777444444444444444-------------------------------|
D|-777777777777777444444444444444-4444444444444455555555555555--|
A|-555555555555555222222222222222-4444444444444445555555555555--|
E|--------------------------------2222222222222223333333333333--|

guitar 2
e|---------------------|                
B|--8-7-8-7--7-8-7-----|                
G|---------------------|   3 x  
D|---------------------|                
A|---------------------|                
E|---------------------|                

e|----------------------------|
B|--8-7-8-7--7-8-7--88888-----|
G|----------------------------|
D|----------------------------|
A|----------------------------|
E|----------------------------|


PA ULET ULET LNG YUN chords ng GUITAR 1 tapos e2 nmn sa guitar 2

sa part nah,,,(oohhhhh ohhhhhhh)

guitar 2

e|--------14--------12-------14-12---------|            
B|-----15--------15-------15-------15-14---|            
G|-14--------14--------14------------------|            
D|-----------------------------------------| 3x         
A|-----------------------------------------|            
E|-----------------------------------------|    

        
tapos e2 

e|-------17-------15--------14-------14-12-------|
B|----15-------15--------15-------15-------15-14-|
G|-14-------14-------14--------14----------------|
D|-----------------------------------------------|
A|-----------------------------------------------|
E|-----------------------------------------------|


TAPOS ETO...

guitar 1

Nahihilo.... yun mabagal n part ^_^
e|--------------------------------------------------------------|
B|--------------------------------------------------------------|
G|-777777777777777444444444444444-------------------------------|
D|-777777777777777444444444444444-4444444444444455555555555555--|
A|-555555555555555222222222222222-4444444444444445555555555555--|
E|--------------------------------2222222222222223333333333333--|


guitar 2
e|--------12---10---------12-10-----10---------12-10------|     
B|-10/12----12----10/12----------12-----10/12---------12--|     
G|--------------------------------------------------------| 3X  
D|--------------------------------------------------------|     
A|--------------------------------------------------------|
E|--------------------------------------------------------|     

e|---------12----10---10-12/15-15--|
B|--10/12-----12-------------------|
G|---------------------------------| end
D|---------------------------------|
A|---------------------------------|
E|---------------------------------|



************************************

| x  Dead note
| /  Slide up
| \  Slide down

************************************

            
            
Suggest correction
Creating personal tab
Creating personal tab
You can edit any tab online and save it as your Personal.

You can edit, replace or remove any tab part or add personal notes – all changes will be seen only by you.

Personal tabs can be accessed anytime from any device, even offline.
Learn more »
comments
print report bad tab
1 comment total.
0 reply
yobmas 10 Mar 27, 2011 03:55 AM

slamat s tab pre!

guest
You may want to rate the tab now too:
select rating
Wanna post a correction for this tab? Suggest correction