Oops, an error
Loading. Please wait.

Migraine tab

version 3
version 3

Whole song

Interactive

7,438 views 12 this week
no commentswrite comment
1 2 3 4 5
3 more votes to show rating
add to favorites
×
Save as Personal and add changes to this tab that will be seen only by you. Learn more ›
×
You can save this tab as Personal to edit and correct it or add notes. All changes will be seen only by you. Learn more »
launch autoscroll
font size
0
reset
how to read this tab
guitar tuner
edit
Autoscroll
slow
fast
+/-
esc
set tempo
stop
===============================================================================
                      Migraine (Acoustic) - Moonstar 88
-------------------------------------------------------------------------------
Tabbed by: stephanie_7368
Email:     stephanie_7368@yahoo.com

*Tatlo yata yung gitara pero sa huli ko lang silang napansing nagsabay-sabay.
 Parang hawig ang style nito sa Acoustic version ng Narda.

legends:
  x -> mute the string    
  v -> vibrato


VERSE I
  oo nga pala
  hindi nga pala tayo
  hanggang dito lang ako
  nangangarap na mapa-sa'yo


VERSE II
     Dsus2
     1 * * * 2 * * * 3 * * * 4 * * *   1 * * * 2 * * * 3 * * * 4 * * *
  e|-------------0---------------0---|-------------0-------------------|
  B|---------3---------------3-------|---------3-----------3-----------|
  G|-----2---------------2-----------|-----2-------------------2-------|
  D|-0-------------------------------|---------------------------------|
  A|---------------------------------|-----------------------------0---|
  E|---------------------------------|---------------------------------|
                                 hin-  di      si- na      sad-    ya

     B/Dsus2
     1 * * * 2 * * * 3 * * * 4 * * *   1 * * * 2 * * * 3 * * * 4 * * *
  e|-------------0---------------0---|-------------0-------------------|
  B|---------3---------------3-------|---------3-----------3-----------|
  G|-----2---------------2-----------|-----2-------------------2-------|
  D|---------------------------------|---------------------------------|
  A|-2-------------------------------|---------------------------------|
  E|---------------------------------|-----------------------------0---|
                             na  ha-   na-   pin   pa      ang

     F#/Dsus2
     1 * * * 2 * * * 3 * * * 4 * * *   1 * * * 2 * * * 3 * * * 4 * * *
  e|-------------0---------------0---|-------------0-------------------|
  B|---------3---------------3-------|---------3-----------------------|
  G|-----2---------------2-----------|-----2---------------2---x-------|
  D|---------------------------------|---------------------------------|
  A|---------------------------------|---------------------------------|
  E|-2-------------------------------|-----------------------------2---|
         lugar   ko                    a-    san   nga     ba  a-  ko

     G/Dsus2
     1 * * * 2 * * * 3 * * * 4 * * *   1 * * * 2 * * * 3 * * * 4 * * *
  e|-------------0---------------0---|-------------0-------------------|
  B|---------3---------------3-------|---------3-----------3-----------|
  G|-----2---------------2-----------|-----2-------------------2-------|
  D|---------------------------------|---------------------------------|
  A|---------------------------------|---------------------------------|
  E|-3-------------------------------|---------------------------------|
                                   andiyan     pa  ba      sa  iyo


CHORUS

  nahihilo

     Dsus2
     1 * * * 2 * * * 3 * * * 4 * * *   1 * * * 2 * * * 3 * * * 4 * * *
  e|-------------0---------------0---|-------------0-------------------|
  B|---------3---------------3-------|---------3-----------3-----------|
  G|-----2---------------2-----------|-----2-------------------2-------|
  D|-0-------------------------------|---------------------------------|
  A|---------------------------------|-----------------------------0---|
  E|---------------------------------|---------------------------------|
                                                   na- li-     li- to

     B/Dsus2
     1 * * * 2 * * * 3 * * * 4 * * *   1 * * * 2 * * * 3 * * * 4 * * *
  e|-------------0---------------0---|-------------0-------------------|
  B|---------3---------------3-------|---------3-----------3-----------|
  G|-----2---------------2-----------|-----2-------------------2-------|
  D|---------------------------------|---------------------------------|
  A|-2-------------------------------|---------------------------------|
  E|---------------------------------|-----------------------------0---|
                                       a-          san         ba

     F#/Dsus2
     1 * * * 2 * * * 3 * * * 4 * * *   1 * * * 2 * * * 3 * * * 4 * * *
  e|-------------0---------------0---|-------------0-------------------|
  B|---------3---------------3-------|---------3-----------------------|
  G|-----2---------------2-----------|-----2---------------2---x-------|
  D|---------------------------------|---------------------------------|
  A|---------------------------------|---------------------------------|
  E|-2-------------------------------|-----------------------------2---|
        'ko  sa'yo          a-        a-          sa          ba

     G/Dsus2
     1 * * * 2 * * * 3 * * * 4 * * *   1 * * * 2 * * * 3 * * * 4 * * *
  e|-------------0---------------0---|-------------0-------------------|
  B|---------3---------------3-------|---------3-----------------------|
  G|-----2---------------2-----------|-----2---------------------------|
  D|---------------------------------|---------------------------------|
  A|---------------------------------|---------------------------------|
  E|-3-------------------------------|---------------------------------|
         ko  sa'yo


VERSE III (same as VERSE II)
  nasusuka ako
  kinakain na ang loob
  masakit na mga tuhod
  kailangan bang lumuhod


VERSE IV guitar 1 (same as VERSE II pluckings)


VERSE IV guitar 2 (strum)
           D         xx0233 D
  gusto ko lang naman
             Bm
  yung totoo
                        F#m
  yung tipong ang sagot
                    G
  ay di rin isang tanong


CHORUS guitar 1

  nahihilo

     Dsus2
     1 * * * 2 * * * 3 * * * 4 * * *   1 * * * 2 * * * 3 * * * 4 * * *
  e|-------------0---------------0---|-------------0-------------------|
  B|---------3---------------3-------|---------3-----------3-----------|
  G|-----2---------------2-----------|-----2-------------------2-------|
  D|-0-------------------------------|---------------------------------|
  A|---------------------------------|-----------------------------0---|
  E|---------------------------------|---------------------------------|
                                                   na- li-     li- to

     B/Dsus2
     1 * * * 2 * * * 3 * * * 4 * * *   1 * * * 2 * * * 3 * * * 4 * * *
  e|-------------0---------------0---|-------------0-------------------|
  B|---------3---------------3-------|---------3-----------3-----------|
  G|-----2---------------2-----------|-----2-------------------2-------|
  D|---------------------------------|---------------------------------|
  A|-2-------------------------------|---------------------------------|
  E|---------------------------------|---------------------------------|
                                       a-          san         ba

     1 * * * 2 * * * 3 * * * 4 * * *   1 * * * 2 * * * 3 * * * 4 * * *
  e|-3---2---3---2-------3-------5v--|---------------------------------|
  B|---------------------------------|---------------------------------|
  G|---------------------------------|---------------------------------|
  D|---------------------------------|---------------------------------|
  A|---------------------------------|---------------------------------|
  E|---------------------------------|---------------------------------|
        'ko  sa'yo                     a-          san         ba

     1 * * * 2 * * * 3 * * * 4 * * *   1 * * * 2 * * * 3 * * * 4 * * *
  e|-3---2---3---2---3---2---3---2---|-3---2---3---2---3---------------|
  B|---------------------------------|---------------------------------|
  G|---------------------------------|---------------------------------|
  D|---------------------------------|---------------------------------|
  A|---------------------------------|---------------------------------|
  E|---------------------------------|---------------------------------|
         ko  sa'yo                                 na- hi- hi-     lo

     Dsus2
     1 * * * 2 * * * 3 * * * 4 * * *   1 * * * 2 * * * 3 * * * 4 * * *
  e|-------------0---------------0---|-------------0-------------------|
  B|---------3---------------3-------|---------3-----------3-----------|
  G|-----2---------------2-----------|-----2-------------------2-------|
  D|-0-------------------------------|---------------------------------|
  A|---------------------------------|-----------------------------0---|
  E|---------------------------------|---------------------------------|
                                                   na- li-     li- to

     B/Dsus2
     1 * * * 2 * * * 3 * * * 4 * * *   1 * * * 2 * * * 3 * * * 4 * * *
  e|-------------0---------------0---|-------------0-------------------|
  B|---------3---------------3-------|---------3-----------3-----------|
  G|-----2---------------2-----------|-----2-------------------2-------|
  D|---------------------------------|---------------------------------|
  A|-2-------------------------------|---------------------------------|
  E|---------------------------------|---------------------------------|
                                       a-          san         ba

     1 * * * 2 * * * 3 * * * 4 * * *   1 * * * 2 * * * 3 * * * 4 * * *
  e|-3---2---3---2-------3-------5v--|---------------------------------|
  B|---------------------------------|---------------------------------|
  G|---------------------------------|---------------------------------|
  D|---------------------------------|---------------------------------|
  A|---------------------------------|---------------------------------|
  E|---------------------------------|---------------------------------|
        'ko  sa'yo           a-        a-          sa          ba

     1 * * * 2 * * * 3 * * * 4 * * *   1 * * * 2 * * * 3 * * * 4 * * *
  e|-3---2---3---2---3---2---3---2---|-3---3-------3---3---3-----------|
  B|---------------------------------|---------------------------------|
  G|---------------------------------|---------------------------------|
  D|---------------------------------|---------------------------------|
  A|---------------------------------|---------------------------------|
  E|---------------------------------|---------------------------------|
         ko  sa'yo                                     da- hil


CHORUS guitar 2 (strum)
           D         Bm
  nahihilo  nalilito
          F#m
  asan ba     'ko  sa'yo
          G
  asan ba   ko sa'yo
           D         Bm
  nahihilo  nalilito
          F#m
  asan ba     'ko  sa'yo
          G
  aasa ba   ko sa'yo


BRIDGE guitar 1

  dahil 

     D                                 Bm
     1 * * * 2 * * * 3 * * * 4 * * *   1 * * * 2 * * * 3 * * * 4 * * *
  e|---------------------------------|---------------------------------|
  B|-3-------------------------------|-3-------------------------------|
  G|-2-------------------------------|-4-------------------------------|
  D|-0-------------------------------|-4-------------------------------|
  A|---------------------------------|-2-------------------------------|
  E|---------------------------------|---------------------------------|
     'di                         na                    ma-     ka- tu-

     F#m                               G
     1 * * * 2 * * * 3 * * * 4 * * *   1 * * * 2 * * * 3 * * * 4 * * *
  e|---------------------------------|---------------------------------|
  B|-2-------------------------------|-3-------------------------------|
  G|-2-------------------------------|-4-------------------------------|
  D|-4-------------------------------|-5-------------------------------|
  A|-4-------------------------------|-5-------------------------------|
  E|-2-------------------------------|-3-------------------------------|
         log                                               hin-    di-

     D                                 Bm
     1 * * * 2 * * * 3 * * * 4 * * *   1 * * * 2 * * * 3 * * * 4 * * *
  e|-2-------------------------------|---------------------------------|
  B|-3-------------------------------|-3-------------------------------|
  G|-2-------------------------------|-4-------------------------------|
  D|-0-------------------------------|---------------------------------|
  A|---------------------------------|-2-------------------------------|
  E|---------------------------------|---------------------------------|
                                 na                    ma-     ka- ka

     F#m                               G
     1 * * * 2 * * * 3 * * * 4 * * *   1 * * * 2 * * * 3 * * * 4 * * *
  e|-2-------------------------------|---------------------------------|
  B|-2-------------------------------|-3-------------------------------|
  G|-2-------------------------------|-4-------------------------------|
  D|-4-------------------------------|---------------------------------|
  A|-4-------------------------------|---------------------------------|
  E|-2-------------------------------|-3-------------------------------|
         in                                            da- hil

     1 * * * 2 * * * 3 * * * 4 * * *   1 * * * 2 * * * 3 * * * 4 * * *
  e|-3---2---3---2-------0-----------|---------------------------------|
  B|-----------------------------3---|---------------------------------|
  G|---------------------------------|---------------------------------|
  D|---------------------------------|---------------------------------|
  A|---------------------------------|---------------------------------|
  E|---------------------------------|---------------------------------|
                 hindi           na                        ma- ka- ta-wa

  dahil 

     1 * * * 2 * * * 3 * * * 4 * * *
  e|-3---2---3---2-------0-----------|
  B|-----------------------------3---|
  G|---------------------------------|
  D|---------------------------------|
  A|---------------------------------|
  E|---------------------------------|
                 hindi           na


BRIDGE guitar 2 (strum 2 base notes)
        D     Bm     F#m    G
  dahil 'di na makatu-  log
       D  Bm     F#m    G
  hindi na makaka-  in

  (normal strumming)
        D         Bm     F#m    G
  dahil   hindi na makata-   wa
        D          Bm  F#m  G(hold)
  dahil   hindi na


VERSE V
     Dsus2
     1 * * * 2 * * * 3 * * * 4 * * *   1 * * * 2 * * * 3 * * * 4 * * *
  e|-------------0---------------0---|-------------0-------------------|
  B|---------3---------------3-------|---------3-----------3-----------|
  G|-----2---------------2-----------|-----2-------------------2-------|
  D|-0-------------------------------|---------------------------------|
  A|---------------------------------|-----------------------------0---|
  E|---------------------------------|---------------------------------|
                                       o-      o   nga         pa- la

     B/Dsus2
     1 * * * 2 * * * 3 * * * 4 * * *   1 * * * 2 * * * 3 * * * 4 * * *
  e|-------------0---------------0---|-------------0-------------------|
  B|---------3---------------3-------|---------3-----------3-----------|
  G|-----2---------------2-----------|-----2-------------------2-------|
  D|---------------------------------|---------------------------------|
  A|-2-------------------------------|---------------------------------|
  E|---------------------------------|-----------------------------0---|
                                 hin-  di          nga     pa- la  ta

     F#/Dsus2
     1 * * * 2 * * * 3 * * * 4 * * *   1 * * * 2 * * * 3 * * * 4 * * *
  e|-------------0---------------0---|-------------0-------------------|
  B|---------3---------------3-------|---------3-----------------------|
  G|-----2---------------2-----------|-----2---------------2---x-------|
  D|---------------------------------|---------------------------------|
  A|---------------------------------|---------------------------------|
  E|-2-------------------------------|-----------------------------2---|
         yo                  hanggang  di-   to    na lang     a-  ko

     G
     1 * * * 2 * * * 3 * * * 4 * * *
  e|-3-------------------------------|
  B|-3-------------------------------|
  G|-3-------------------------------|
  D|-4-------------------------------|
  A|-5-------------------------------|
  E|-3-------------------------------|


CHORUS guitar 1

  nahihilo

     1 * * * 2 * * * 3 * * * 4 * * *   1 * * * 2 * * * 3 * * * 4 * * *  
  e|-3---2---3---2-------0-----------|---------------------------------|
  B|-----------------------------3---|---------------------------------|
  G|---------------------------------|---------------------------------|
  D|---------------------------------|---------------------------------|
  A|---------------------------------|---------------------------------|
  E|---------------------------------|---------------------------------|
                                                   na- li-     li- to

     1 * * * 2 * * * 3 * * * 4 * * *   1 * * * 2 * * * 3 * * * 4 * * *  
  e|-3---2---3---2-------0-----------|---------------------------------|
  B|-----------------------------3---|---------------------------------|
  G|---------------------------------|---------------------------------|
  D|---------------------------------|---------------------------------|
  A|---------------------------------|---------------------------------|
  E|---------------------------------|---------------------------------|
                                       a-          san             ba

     1 * * * 2 * * * 3 * * * 4 * * *   1 * * * 2 * * * 3 * * * 4 * * *
  e|-3---2---3---2-------3-------5v--|---------------------------------|
  B|---------------------------------|---------------------------------|
  G|---------------------------------|---------------------------------|
  D|---------------------------------|---------------------------------|
  A|---------------------------------|---------------------------------|
  E|---------------------------------|---------------------------------|
         ko  sa'yo                     a-          san             ba

     1 * * * 2 * * * 3 * * * 4 * * *   1 * * * 2 * * * 3 * * * 4 * * *
  e|-3---2---3---2---3---2---3---2---|-3---2---3---2---3---2---3---2---|
  B|---------------------------------|---------------------------------|
  G|---------------------------------|---------------------------------|
  D|---------------------------------|---------------------------------|
  A|---------------------------------|---------------------------------|
  E|---------------------------------|---------------------------------|
         ko  sa'yo                                 na- hi-   hi-   lo

     1 * * * 2 * * * 3 * * * 4 * * *   1 * * * 2 * * * 3 * * * 4 * * *  
  e|-3---2---3---2-------0-----------|---------------------------------|
  B|-----------------------------3---|---------------------------------|
  G|---------------------------------|---------------------------------|
  D|---------------------------------|---------------------------------|
  A|---------------------------------|---------------------------------|
  E|---------------------------------|---------------------------------|
                                                   na- li-     li- to

     1 * * * 2 * * * 3 * * * 4 * * *   1 * * * 2 * * * 3 * * * 4 * * *  
  e|-3---2---3---2-------0-----------|---------------------------------|
  B|-----------------------------3---|---------------------------------|
  G|---------------------------------|---------------------------------|
  D|---------------------------------|---------------------------------|
  A|---------------------------------|---------------------------------|
  E|---------------------------------|---------------------------------|
                                       a-          san             ba

     1 * * * 2 * * * 3 * * * 4 * * *   1 * * * 2 * * * 3 * * * 4 * * *
  e|-3---2---3---2-------3-------5v--|---------------------------------|
  B|---------------------------------|---------------------------------|
  G|---------------------------------|---------------------------------|
  D|---------------------------------|---------------------------------|
  A|---------------------------------|---------------------------------|
  E|---------------------------------|---------------------------------|
         ko  sa'yo           a         a-          sa              ba

     1 * * * 2 * * * 3 * * * 4 * * *   1 * * * 2 * * * 3 * * * 4 * * *
  e|-3---2---3---2---3---2---3---2---|-3---2---3---2---3---2---3---2---|
  B|---------------------------------|---------------------------------|
  G|---------------------------------|---------------------------------|
  D|---------------------------------|---------------------------------|
  A|---------------------------------|---------------------------------|
  E|---------------------------------|---------------------------------|
         ko  sa'yo                                 na- hi-   hi-   lo


CHORUS guitar 2 (strum)
           D         Bm
  nahihilo  nalilito
          F#m
  asan ba     'ko  sa'yo
          G
  asan ba   ko sa'yo
           D         Bm
  nahihilo  nalilito
          F#m
  asan ba     'ko  sa'yo
          G
  aasa ba   ko sa'yo


OUTRO guitar 1
     Dsus2
     1 * * * 2 * * * 3 * * * 4 * * *   1 * * * 2 * * * 3 * * * 4 * * *
  e|-------------0---------------0---|-------------0-------------------|
  B|---------3---------------3-------|---------3-----------3-----------|
  G|-----2---------------2-----------|-----2-------------------2-------|
  D|-0-------------------------------|---------------------------------|
  A|---------------------------------|-----------------------------0---|
  E|---------------------------------|---------------------------------|

     B/Dsus2
     1 * * * 2 * * * 3 * * * 4 * * *   1 * * * 2 * * * 3 * * * 4 * * *
  e|-------------0---------------0---|-------------0-------------------|
  B|---------3---------------3-------|---------3-----------3-----------|
  G|-----2---------------2-----------|-----2-------------------2-------|
  D|---------------------------------|---------------------------------|
  A|-2-------------------------------|---------------------------------|
  E|---------------------------------|-----------------------------0---|
                                                   na- li-     li- to
     F#/Dsus2
     1 * * * 2 * * * 3 * * * 4 * * *   1 * * * 2 * * * 3 * * * 4 * * *
  e|-------------0---------------0---|-------------0-------------------|
  B|---------3---------------3-------|---------3-----------------------|
  G|-----2---------------2-----------|-----2---------------2---x-------|
  D|---------------------------------|---------------------------------|
  A|---------------------------------|---------------------------------|
  E|-2-------------------------------|-----------------------------2---|

     G

OUTRO guitar 2 (strum 2 base notes)
           D  Bm            F#m G
  nahihilo        nalilito


OUTRO guitar 3
     1 * * * 2 * * * 3 * * * 4 * * *   1 * * * 2 * * * 3 * * * 4 * * *
  e|---------------------------------|-----------------5-------7-------|
  B|-7---7---7---7-------7---7---7---|-----7---7---7-------------------|
  G|---------------------------------|---------------------------------|
  D|---------------------------------|---------------------------------|
  A|---------------------------------|---------------------------------|
  E|---------------------------------|---------------------------------|

     1 * * * 2 * * * 3 * * * 4 * * *   1 * * * 2 * * * 3 * * * 4 * * *
  e|---------------------------------|---------------------------------|
  B|-7---7---7---7---7---7---7---7---|-7---7---7---7---7---7---7---7---|
  G|---------------------------------|---------------------------------|
  D|---------------------------------|---------------------------------|
  A|---------------------------------|---------------------------------|
  E|---------------------------------|---------------------------------|

     1 * * * 2 * * * 3 * * * 4 * * *   1 * * * 2 * * * 3 * * * 4 * * *
  e|---------------------------------|-----------------5-------7-------|
  B|-7---7---7---7---7---7---7---7---|-----7---7---7-------------------|
  G|---------------------------------|---------------------------------|
  D|---------------------------------|---------------------------------|
  A|---------------------------------|---------------------------------|
  E|---------------------------------|---------------------------------|

     1 * * * 2 * * * 3 * * * 4 * * *
  e|-3---3---3---3---3---2-------3---|
  B|---------------------------------|
  G|---------------------------------|
  D|---------------------------------|
  A|---------------------------------|
  E|---------------------------------|

===============================================================================

            
            
Suggest correction
Creating personal tab
Creating personal tab
You can edit any tab online and save it as your Personal.

You can edit, replace or remove any tab part or add personal notes – all changes will be seen only by you.

Personal tabs can be accessed anytime from any device, even offline.
Learn more »
Give kudos to tab author, rate the tab!
1 2 3 4 5
comments
print report bad tab
guest
You may want to rate the tab now too:
select rating
Wanna post a correction for this tab? Suggest correction