Oops, an error
Loading. Please wait.

Torete tab

version 3
version 3

Whole song

7,341 views 105 this week
no commentswrite comment
1 2 3 4 5
3 more votes to show rating
add to favorites
×
Save as Personal and add changes to this tab that will be seen only by you. Learn more ›
×
You can save this tab as Personal to edit and correct it or add notes. All changes will be seen only by you. Learn more »
launch autoscroll
font size
0
reset
how to read this tab
guitar tuner
edit
Autoscroll
slow
fast
+/-
esc
set tempo
stop
i2 nga pala ung tab na nakuha ko sa iba at panagsamasama ko.......kya kaboom un
accurate hehehehe kung may question email me at slickclyde214@yahoo.com
im clyde214 nga pla....add me na rin sa friendster nyo at paki rate

Torete Tab by Moonstar 88, www.Ultimate-Guitar.Com
Tuning: e-a-d-g-b-e

	D
e|--2-2----2h3--2--------------------------------|
B|-----------------------------------------------|
G|-----------------------------------------------|
D|--0-0----0-------------------------------------|
A|-----------------------------------------------|
E|-----------------------------------------------|
	F#m
e|------2-----2----------------------------------|
B|------2-----2----------------------------------|
G|-----------------------------------------------|
D|-----------------------------------------------|
A|-----------------------------------------------|
E|-0-2-----2-------------------------------------|
	Bm7
e|------------2-----7----3h4p2h3p0---------------|<===this line 
B|------------3----------------------------------|
G|-----------------------------------------------| is quite 
D|-----------------------------------------------| fast
A|-0-1-2-3---------------------------------------|
E|-----------------------------------------------|
	G
e|---------3----3---------------------------------|
B|---------3----3---------------------------------|
G|---------4----4---------------------------------|
D|------------------------------------------------|
A|------------------------------------------------|
E|--0--3------------------------------------------|

Verse1
              D      F#m    bm               G
Sandali na lang         Maari bang pagbigyan
          D     F#m       bm            G       
Aalis na nga           Maaari bang hawakan ang 
   D        F#m    bm         G                         
iyong mga kamay    Sana ay maabot ng langit ang 
   D        F#m    bm         G break  
iyong mga ngiti    Sana ay masilip 

Refrain: 
D            F#m      bm       G 
Wag kang mag-alala    Di ko ipipilit sa 'yo
D        F#m         bm           G  
Kahit na lilipad ang isip ko'y torete sa 'yo 

Verse2: every chords (break) 
D        F#m                      bm         G
Ilang gabi pa nga lang     Nang tayo'y pinagtagpo 
D               F#m          bm                G 
Na parang may tumulak     Nanlalamig, nanginginig na ako 
D             F#m         bm         G
Akala ko nung una     May bukas ang ganito 
D             F#m           bm               G      
Mabuti pang umiwas   Pero salamat na rin at nagtagpo 

Chorus
   D      F#m     bm   G
Torete, torete, torete ako
   D      F#m     bm      G 
Torete, torete, torete sa 'yo 

Refrain: 
D            F#m      bm       G 
Wag kang mag-alala    Di ko ipipilit sa 'yo
D        F#m         bm           G         
Kahit na lilipad ang isip ko'y torete sa 'yo

   D      F#m     bm   G
Torete, torete, torete ako
   D      F#m     bm   G 
Torete, torete, torete ako 
        
Adlib
e|-----------9-9—10--7---------------------------|
B|------10--------------10-----------------------|
G|-5s7-------------------------------------------|
D|-----------------------------------------------|
A|-----------------------------------------------|
E|-----------------------------------------------|

e|-----------------------------------------------|
B|------10—9-7h8-7h8-7h8-7h8—10------------------|
G|-5s7-------------------------------------------| 
D|-----------------------------------------------|
A|-----------------------------------------------|
E|-----------------------------------------------|
Chorus
   D      F#m     bm   G
Torete, torete, torete ako
   D      F#m     bm      G 
Torete, torete, torete sa 'yo

e|---------------10-9-10-9-10\12-10b-----------------------------------------|
B|--------10b----------------------------------10b--8-7-8b-------------------|
G|--5/7--------------------------------5\7b----------------------------------|
D|---------------------------------------------------------------------------|<-----????
A|---------------------------------------------------------------------------|
E|---------------------------------------------------------------------------|
CHORDS
e|--2----2----2----3----3----------------------------------------------------|
B|--3----2----3----3----3----------------------------------------------------|
G|--2----2----4----0----4----------------------------------------------------|
D|-------4----4----0----5----------------------------------------------------|
A|-------4----2----2----5----------------------------------------------------|
E|-------2----x----3----3----------------------------------------------------|
    D    F#m  bm   G or G
Lead power chords in distortion...
e|-------x-------x--------x----x---x------------------------------------------|
B|-------x-------x--------x----x---x------------------------------------------|
G|-------x-------x--------x----x---x------------------------------------------|
D|-------7-------11-------4----x---x------------------------------------------|
A|-------5-------9--------2----9---5------------------------------------------|
E|-------x-------x--------x----7---3------------------------------------------|
	D	F	B or B	G
| /  slide up
| \  slide down
| h  hammer-on
| p  pull-off
| x  Mute note

===============================================================================

            
            
Suggest correction
Creating personal tab
Creating personal tab
You can edit any tab online and save it as your Personal.

You can edit, replace or remove any tab part or add personal notes – all changes will be seen only by you.

Personal tabs can be accessed anytime from any device, even offline.
Learn more »
Give kudos to tab author, rate the tab!
1 2 3 4 5
comments
print report bad tab
guest
Wanna post a correction for this tab? Suggest correction