Oops, an error
Loading. Please wait.
We have Chord Pro version of Honey.
It's the closest thing you can get to the original song and it has interactive parts. Check out the tab »
×

Honey chords

12,124 views 108 this week
5 commentsread comments
1 2 3 4 5
x 27
add to favorites
×
Save as Personal and add changes to this tab that will be seen only by you. Learn more ›
×
You can save this tab as Personal to edit and correct it or add notes. All changes will be seen only by you. Learn more »
launch autoscroll
font size
0
reset
transpose
0
reset
display chords
guitar tuner
edit
Autoscroll
slow
fast
+/-
esc
set tempo
stop
Strumming
There is no strumming pattern for this song yet. and get +5 IQ
MOOSE BLOOD - Honey


This is how I've been playing it. Basically a simplified version, but it still sounds legit! :)


Standard Tuning



[Intro]

D G A G x2


[Verse 1]
D
Back and forth I've been here before
G
The words you said just left me on the floor
D                                    A
And I came round and blew smoke from my mouth
                           D
I thought I saw you in the clouds
                 A
But I chose to forgive
                   D
I find it hard to forget
                                           G
Even though you said it's something you'd regret


[Pre-Chorus]
                         D   A  G
It's in the back of my mind
                         D   A  G
But it's worse when I sleep
                         D   A  G
Now I'm losing my breath
                   A          G     
And I'll never understand how you could forget me


[Chorus]
D                  G
This feeling will only get better
A           G
I'll just hold it all together
D             G
Cause we are good for each other
A               G
And this will pass like the weather


[Verse 2]
D                     
Maybe we both know it doesn't work
         G
I don't know what to do without making it worse
      D                              A
But I don't like who I am when I'm not with you
                 D
I couldn't make sense of it
                    G
I hadn't slept for days 
                 D                                           G              
I never had the feeling that could make me throw up in the street


[Pre-Chorus]
                         D   A  G
It's in the back of my mind
                         D   A  G
But it's worse when I sleep
                         D   A  G
Now I'm losing my breath
                   A          G     
And I'll never understand how you could forget me


[Chorus]
D                  G
This feeling will only get better
A           G
I'll just hold it all together
D             G
Cause we are good for each other
A               G
And this will pass like the weather


e|---------------------------------------------------------------|
B|---------------------------------------------------------------|
G|---------------------------------------------------------------|
D|---------------------------------------------------------------|
A|-9-7-5-7-5--5--9-7-5-7-5---5--9-7-5-7-5------------------------|
E|-------------------------7--------------7-5--------------------|

e|---------------------------------------------------------------|
B|---------------------------------------------------------------|
G|---------------------------------------------------------------|
D|---------------------------------------------------------------|
A|-9-7-5-7-5--5--9-7-5-7-5---5--9-7-5-7-5--5---------------------|
E|-------------------------7--------------7----------------------|


[Bridge]
                         D   A  G
It's in the back of my mind
                         D   A  G
But it's worse when I sleep
                         D   A  G
Now I'm losing my breath
                   A          G     
And I'll never understand how you could forget me


[Chorus]
D                  G
This feeling will only get better
A           G
I'll just hold it all together
D             G
Cause we are good for each other
A               G
And this will pass like the weather

D                  G
This feeling will only get better
D           G
I'll just hold it all together
D             G
Cause we are good for each other
A               G
And this will pass like the weather


e|---------------------------------------------------------------|
B|---------------------------------------------------------------|
G|---------------------------------------------------------------|
D|---------------------------------------------------------------|
A|-9-7-5-7-5--5--9-7-5-7-5---5--9-7-5-7-5------------------------|
E|-------------------------7--------------7-5--------------------|

e|---------------------------------------------------------------|
B|---------------------------------------------------------------|
G|---------------------------------------------------------------|
D|---------------------------------------------------------------|
A|-9-7-5-7-5--5--9-7-5-7-5---5--9-7-5-7-5--5---------------------|
E|-------------------------7--------------7----------------------| 

            
            
Suggest correction
Creating personal tab
Creating personal tab
You can edit any tab online and save it as your Personal.

You can edit, replace or remove any tab part or add personal notes – all changes will be seen only by you.

Personal tabs can be accessed anytime from any device, even offline.
Learn more »
comments
print report bad tab
5 comments total. Showing first comments.
0 reply
emilyjohn331 10 Apr 20, 2016 12:39 PM

great tab! love this song so much!

0 reply
ariadna.vegas 10 Sep 02, 2016 10:10 AM

it is great!

0 reply
tori_waves 94 Sep 03, 2016 10:31 AM

Anyone know the strumming pattern?

guest
You may want to rate the tab now too:
select rating
Wanna post a correction for this tab? Suggest correction