Oops, an error
Loading. Please wait.
We have Chord Pro version of Honey.
It's the closest thing you can get to the original song and it has interactive parts. Check out the tab »
×
7,885 views 63 this week
4 commentsread comments
1 2 3 4 5
x 16
add to favorites
×
Save as Personal and add changes to this tab that will be seen only by you. Learn more ›
×
You can save this tab as Personal to edit and correct it or add notes. All changes will be seen only by you. Learn more »
launch autoscroll
font size
0
reset
how to read this tab
guitar tuner
edit
Autoscroll
slow
fast
+/-
esc
set tempo
stop
HONEY – MOOSE BLOOD


[Intro]
 
e|--------------------------------------------------------------------------------------|
B|-10-10-10-10-10-10-10-10-5-5-5-7-7-7-7-7-7-8-8-8-7-7-7-7-7-7-5-5-5-7-7-7-7-7-7--------|
G|-------------------------------------------------------------------------------7------| x2
D|--------------------------------------------------------------------------------------|
A|--------------------------------------------------------------------------------------|
E|--------------------------------------------------------------------------------------| 


[Verse]

e|-----2------------0---0----------2------------0---0---------|
B|---3---3--------3---3---3------3---3--------3---3---3-------|
G|-2-------2----2--------------2-------2----2-----------------|
D|------------------------------------------------------------|
A|------------------------------------------------------------|
E|------------------------------------------------------------| 

e|-------------0-0-0--------------------------------0-0-0--------------------|
B|-2-2-2-3~----------3-3-3-3-2-2-2-3----2-2-2-3~----------3-3-3-3-2-2-2-3----|
G|---------------------------------------------------------------------------|
D|---------------------------------------------------------------------------|
A|---------------------------------------------------------------------------|
E|---------------------------------------------------------------------------| 


[Pre-Chorus]

e|-2-2-2-2-0-3-3-3-3-3-3-3-3----2-2-2-2-0-3-3-3-3-3-3-3-3----|
B|-3-3-3-3-2-0-0-0-0-0-0-0-0----3-3-3-3-2-0-0-0-0-0-0-0-0----|
G|-2-2-2-2-2-0-0-0-0-0-0-0-0----2-2-2-2-2-0-0-0-0-0-0-0-0----|
D|-0-0-0-0-2-0-0-0-0-0-0-0-0----0-0-0-0-2-0-0-0-0-0-0-0-0----|
A|---------0-2-2-2-2-2-2-2-2------------0-2-2-2-2-2-2-2-2----|
E|-----------3-3-3-3-3-3-3-3--------------3-3-3-3-3-3-3-3----| 

e|-2-2-2-2-0-3-3-3-3-3-3-3-3----0-0-0-0-0-0-0-0-0-0-0-0-0-0-0-0---|
B|-3-3-3-3-2-0-0-0-0-0-0-0-0----2-2-2-2-2-2-2-2-2-2-2-2-2-2-2-2---|
G|-2-2-2-2-2-0-0-0-0-0-0-0-0----2-2-2-2-2-2-2-2-2-2-2-2-2-2-2-2---|
D|-0-0-0-0-2-0-0-0-0-0-0-0-0----2-2-2-2-2-2-2-2-2-2-2-2-2-2-2-2---|
A|---------0-2-2-2-2-2-2-2-2----0-0-0-0-0-0-0-0-0-0-0-0-0-0-0-0---|
E|-----------3-3-3-3-3-3-3-3--------------------------------------| 


[Chorus]

e|-----------------------------------------------------------------------|
B|-----------------------------------------------------------------------|
G|-7-7-7-7-7-7-7-7-------------------------------------------------------|
D|-7-7-7-7-7-7-7-7--5-5-5-5-5-5-5-5--7-7-7-7-7-7-7-7--5-5-5-5-5-5-5-5----|
A|-5-5-5-5-5-5-5-5--5-5-5-5-5-5-5-5--7-7-7-7-7-7-7-7--5-5-5-5-5-5-5-5----|
E|------------------3-3-3-3-3-3-3-3--5-5-5-5-5-5-5-5--3-3-3-3-3-3-3-3----|

e|-----------------------------------------------------------------------|
B|-----------------------------------------------------------------------|
G|-7-7-7-7-7-7-7-7-------------------------------------------------------|
D|-7-7-7-7-7-7-7-7--5-5-5-5-5-5-5-5--7-7-7-7-7-7-7-7--5-5-5-5-7-7-7-7----|
A|-5-5-5-5-5-5-5-5--5-5-5-5-5-5-5-5--7-7-7-7-7-7-7-7--5-5-5-5-7-7-7-7----|
E|------------------3-3-3-3-3-3-3-3--5-5-5-5-5-5-5-5--3-3-3-3-5-5-5-5----|


[Bridge]

e|--------------------------------------------------------------|
B|-5/7-5---5------5/7-5---5--------5/7-5---5---5----------------|
G|-------7---7-7--------7---7---7--------7---7------------------|
D|----------------------------7------------------7~-------------|
A|--------------------------------------------------------------|
E|--------------------------------------------------------------| 

e|--------------------------------------------------------------|
B|-5/7-5---5------5/7-5---5--------5/7-5---5--------------------|
G|-------7---7-7--------7---7---7--------7---7---7~-------------|
D|----------------------------7----------------7----------------|
A|--------------------------------------------------------------|
E|--------------------------------------------------------------| 

e|-2-2-2-2--0--3~----2-2-2-2--0--3~----2-2-2-2--0--3~---2~---0~---|
B|-3-3-3-3--2--0~----3-3-3-3--2--0~----3-3-3-3--2--0~---3~---2~---|
G|-2-2-2-2--2--0~----2-2-2-2--2--0~----2-2-2-2--2--0~---2~---2~---|
D|-0-0-0-0--2--0~----0-0-0-0--2--0~----0-0-0-0--2--0~---0~---2~---|
A|----------0--2~-------------0--2~-------------0--2~--------0~---|
E|-------------3~----------------3~----------------3~-------------| 


[Final chorus]

e|-----------------------------------------------------------------------|
B|-----------------------------------------------------------------------|
G|-7-7-7-7-7-7-7-7-------------------------------------------------------|
D|-7-7-7-7-7-7-7-7--5-5-5-5-5-5-5-5--7-7-7-7-7-7-7-7--5-5-5-5-5-5-5-5----|
A|-5-5-5-5-5-5-5-5--5-5-5-5-5-5-5-5--7-7-7-7-7-7-7-7--5-5-5-5-5-5-5-5----|
E|------------------3-3-3-3-3-3-3-3--5-5-5-5-5-5-5-5--3-3-3-3-3-3-3-3----|

e|------------------------------------------------------------|
B|------------------------------------------------------------|
G|-7-7-7-7-7-7-7-7--------------------------------------------|
D|-7-7-7-7-7-7-7-7--5-5-5-5-5-5-5-5--7----7----5--5--5--5-----|
A|-5-5-5-5-5-5-5-5--5-5-5-5-5-5-5-5--7----7----5--5--5--5-----|
E|------------------3-3-3-3-3-3-3-3--5----5----3--3--3--3-----|

e|-----------------------------------------------------------------------|
B|-----------------------------------------------------------------------|
G|-7-7-7-7-7-7-7-7-------------------------------------------------------|
D|-7-7-7-7-7-7-7-7--5-5-5-5-5-5-5-5--7-7-7-7-7-7-7-7--5-5-5-5-5-5-5-5----|
A|-5-5-5-5-5-5-5-5--5-5-5-5-5-5-5-5--7-7-7-7-7-7-7-7--5-5-5-5-5-5-5-5----|
E|------------------3-3-3-3-3-3-3-3--5-5-5-5-5-5-5-5--3-3-3-3-3-3-3-3----|

e|-----------------------------------------------------------------------|
B|-----------------------------------------------------------------------|
G|-7-7-7-7-7-7-7-7-------------------------------------------------------|
D|-7-7-7-7-7-7-7-7--5-5-5-5-5-5-5-5--7-7-7-7-7-7-7-7--5-5-5-5-7-7-7-7----|
A|-5-5-5-5-5-5-5-5--5-5-5-5-5-5-5-5--7-7-7-7-7-7-7-7--5-5-5-5-7-7-7-7----|
E|------------------3-3-3-3-3-3-3-3--5-5-5-5-5-5-5-5--3-3-3-3-5-5-5-5----|


[Outro]

e|--------------------------------------------------------------|
B|-5/7-5---5------5/7-5---5--------5/7-5---5---5----------------|
G|-------7---7-7--------7---7---7--------7---7------------------|
D|----------------------------7------------------7~-------------|
A|--------------------------------------------------------------|
E|--------------------------------------------------------------| 

e|--------------------------------------------------------------|
B|-5/7-5---5------5/7-5---5--------5/7-5---5--------------------|
G|-------7---7-7--------7---7---7--------7---7---7~-------------|
D|----------------------------7----------------7----------------|
A|--------------------------------------------------------------|
E|--------------------------------------------------------------| 

            
            
Suggest correction
Creating personal tab
Creating personal tab
You can edit any tab online and save it as your Personal.

You can edit, replace or remove any tab part or add personal notes – all changes will be seen only by you.

Personal tabs can be accessed anytime from any device, even offline.
Learn more »
comments
print report bad tab
4 comments total. Showing first comments.
0 reply
eithan-wwe-cena 10 Apr 24, 2016 12:56 AM

Bridge sounds like it should have that last 2 0 at the end, or something along those lines...

e|--------------------------------------------------------------|
B|-5/7-5---5------5/7-5---5--------5/7-5---5--------------------|
G|-------7---7-7--------7---7---7--------7---7------------------|
D|----------------------------7---------------------------------|
A|----------------------------------------------2-0~------------|
E|--------------------------------------------------------------|

0 reply
Ruitvrs 10 May 21, 2016 12:54 PM

This is awesome! Really well done!

The only thing I think I'd change is that at the end of the verse I think it sounds more like

e|---------------------------------------------------------------------------|
B|-55533322233333~------222333~-----55533322233333~--------------------------|
G|---------------------------------------------------------------------------|
D|---------------------------------------------------------------------------|
A|---------------------------------------------------------------------------|
E|---------------------------------------------------------------------------|

or something similar

+1 reply
oursummeranthem 509 May 21, 2016 07:43 PM

The open e note and 5th fret on the b string are the same notes. If you're more comfortable playing it like that go ahead, either way is correct!

guest
You may want to rate the tab now too:
select rating
Wanna post a correction for this tab? Suggest correction