Oops, an error
Loading. Please wait.

Pits Of Utumno tab

by Morgoth
272 views 3 this week
no commentswrite comment
1 2 3 4 5
3 more votes to show rating
add to favorites
×
Save as Personal and add changes to this tab that will be seen only by you. Learn more ›
×
You can save this tab as Personal to edit and correct it or add notes. All changes will be seen only by you. Learn more »
launch autoscroll
font size
0
reset
how to read this tab
guitar tuner
edit
Autoscroll
slow
fast
+/-
esc
set tempo
stop
Artist: Morgoth 
Song: Pits Of Utumno
Album: The Eternal Fall
Year: 1990
Tabbed by: antichris666

Tuning: D standard 

 Gtr  I
|------------------------------------------------------------------------|
|------------------------------------------------------------------------|
|------------------------------------------------------------------------|
|------------------------------------------------------------------------|
|-----2-222-222-222222-3-333-333-3-2----2-222-222-222222-3-333-333-3-2---|
|-12/-0-000-000-000000-1-111-111-----3--0-000-000-000000-1-111-111-----3-|
      . ... ... ...... . ... ...        . ... ... ...... . ... ...  

 Gtr II
|------------------------------------------------------------------------|
|------------------------------------------------------------------------|
|------------------------------------------------------------------------|
|------------------------------------------------------------------------|
|---------------------------------------2----------------3---------3-2---|
|---------------------------------------0----------------1-------------3-|



 Riff A
|----------------------------------------------------------------------|
|----------------------------------------------------------------------|
|----------------------------------------------------------------------|
|----------------------------------------------------------------------|
|-2-222-222-222222-3-333-333-3-2----2-222-222-222222-3-333-333-3-2-----|
|-0-000-000-000000-1-111-111-----3--0-000-000-000000-1-111-111-----3---|
  . ... ... ...... . ... ...        . ... ... ...... . ... ...  



 Gtr I
|----------------------------------------------------------------------|
|----------------------------------------------------------------------|
|----------------------------------------------------------------------|
|----------------------------------9-0-10-0-9-0-10-0-9-0-10-0-9-0-10-0-|
|-7-0-8-0-7-0-8-0-7-0-8-0-7-0-8-0--------------------------------------|
|----------------------------------------------------------------------|

 Gtr II
|----------------------------------------------------------------------|
|----------------------------------------------------------------------|
|----------------------------------------------------------------------|
|----------------------------------------------------------------------|
|-2-222-222-222222-3-333-333-3-2----2-222-222-222222-3-333-333-3-2-----|
|-0-000-000-000000-1-111-111-----3--0-000-000-000000-1-111-111-----3---|
  . ... ... ...... . ... ...        . ... ... ...... . ... ...



 Gtr I
|-------------------------------------------------------------------12-|
|-------------------------------------12-0-13-0-12-0-13-0-12-0-13-0----|
|-9-0-10-0-9-0-10-0-9-0-10-0-9-0-10-0----------------------------------|
|----------------------------------------------------------------------|
|----------------------------------------------------------------------|
|----------------------------------------------------------------------|
 
 Gtr II
|----------------------------------------------------------------------|
|----------------------------------------------------------------------|
|----------------------------------------------------------------------|
|----------------------------------------------------------------------|
|-2-222-222-222222-3-333-333-3-2----2-222-222-222222-3-333-333-3-2-----|
|-0-000-000-000000-1-111-111-----3--0-000-000-000000-1-111-111-----3---|
  . ... ... ...... . ... ...        . ... ... ...... . ... ...



 Riff B (Repeat 2 times)
|-------------------------------------------------------|
|-------------------------------------------------------|
|-------------------------------------------------------|
|-------------------------------------------------------|
|----------------------------666666-777777--------------|
|-777777-888888-000000000000---------------000000000000-|
  ...... ...... ............ ...... ...... ............


 Riff C (Repeat 5 times)
|-------------------------------------|
|-------------------------------------|
|-------------------------------------|
|-------------------------------------|
|---------------5555-4444-0000-444444-|
|-333333-222222-----------------------|
  ...... ...... .... .... .... ...... 
  

 Riff D (Repeat 3 times)
|-------------------------------------|
|-------------------------------------|
|-------------------------------------|
|-------------------------------------|
|-5555-4444-0000-444444---------------|
|-----------------------333333-222222-|
  .... .... .... ...... ...... ...... 


 Riff E
|---------------|
|---------------|
|---------------|
|---------------|
|---------------|
|-333333-222222-|      
  ...... ......


 Riff F (Repeat 2 times)
|------------------------------------|
|------------------------------------|
|------------------------------------|
|------------------------------------|
|------------------------------------|
|-0-0-0-0-0-00-0-0--0-0-0-0-0-00-0-0-|
  . . . . . .. . .  . . . . . .. . .



 Gtr I
|----------------------------------------------------|
|----------------------------------------------------|
|----------------------------------------------------|
|----------------------------------------------------|
|-3-2----------5-3----------3-2----------5-3---------|
|-1-0--000000--3-1--111111--1-0--000000--3-1-111111--|
       ......       ......       ......      ......
 
 Gtr II
|----------------------------------------------------|
|----------------------------------------------------|
|----------------------------------------------------|
|-10-9--------12-10---------10-9---------12-10-------| 
|-8--7--------10--8---------8--7---------10--8-------|
|----------------------------------------------------|



 Gtr I
|---------------------------------------------------------------------------------------|
|---------------------------------------------------------------------------------------|
|---------------------------------------------------------------------------------------|
|---------------------------------------------------------------------------------------|
|---------------------------------------------------------------------------------------|
|-3-2--5-3-6--5-3-2--5-3-2--5-3-2---------5---------3---------2--2--3-5-3-2--5-3-2--5-3-|
|-1-0--3-1-4--3-1-0--3-1-0--3-1-0--444444-3--222222-1--111111-0--0--1-3-1-0--3-1-0--3-1-|
                                   ......    ......    ......     
 Gtr II
|---------------------------------------------------------------------------------------|
|---------------------------------------------------------------------------------------|
|-5-4--7-5-8--7-5-4--7-5-4--7-5-4---------7---------5---------4--4--5-7-5-4--7-5-4--7-5-|
|-3-2--5-3-6--5-3-2--5-3-2--5-3-2--666666-5--444444-3--333333-2--2--3-5-3-2--5-3-2--5-3-|
|---------------------------------------------------------------------------------------|
|---------------------------------------------------------------------------------------|
                                   ......    ......    ......



 Riff G
|------------------------------------------------------------------------|
|------------------------------------------------------------------------|
|------------------------------------------------------------------------|
|----------------3-2---------------------3-2---------------------3-2-----|
|-2----2----2--------3-2--2----2----2--------3-2--2----2----2--------3-2-|
|-0-00-0-00-0-00----------0-00-0-00-0-00----------0-00-0-00-0-00---------|
    ..   ..   ..            ..   ..   ..            ..   ..   ..
          

 Riff H
|-----------------------------------|
|-----------------------------------|
|-----------------------------------|
|----------3-2--------------3-2-----|
|--------------3-2--------------3-2-|
|-00000000---------00000000---------|
  ........         ........
           

 Riff I 
|----------------------------------------------------------|
|----------------------------------------------------------|
|----------------------------------------------------------|
|----------------------------------------------------------|
|-2----2----2----5-4-2----2----2----5-4-2----2----2----5-4-|
|-0-00-0-00-0-00-3-2-0-00-0-00-0-00-3-2-0-00-0-00-0-00-3-2-|
    ..   ..   ..       ..   ..   ..       ..   ..   ..     

|---------------------------------------|
|---------------------------------------|
|---------------------------------------|
|---------------------------------------|
|-5----5----5----8-7-5----5----5----5-4-|
|-3-33-3-33-3-33-6-5-3-33-3-33-3-33-3-2-|
    ..   ..   ..       ..   ..   ..



 Gtr I
|------------------|-------------------|-------------------|-------------------|    |-------|
|------------------|-------------------|-------------------|-------------------|    |-------|
|-t12-9p0-t12-9p0--|-t12-10p0-t12-10p0-|-t12-11p0-t12-11p0-|-t12-10p0-t12-10p0-|    |-t12-9-|
|------------------|-------------------|-------------------|-------------------|    |-------|
|------------------|-------------------|-------------------|-------------------|    |-------|
|------------------|-------------------|-------------------|-------------------|    |-------|
         x4                 x4                   x4                 x4  

 Gtr II
|------------------|-------------------|-------------------|-------------------|    |-------|
|------------------|-------------------|-------------------|-------------------|    |-------|
|------------------|-------------------|-------------------|-------------------|    |-------|
|------------------|-------------------|-------------------|-------------------|    |-------|
|------------------|-------------------|-------------------|-------------------|    |---2---|
|-0000000000000000-|-1111111111111111--|-2222222222222222--|-1111111111111111--|    |---0---|
  ................   ................  ................   ................



 Riff J
|-------------|
|-------------|
|-------------|
|-------------|
|-0-2-3-6-5-3-|
|-------------|


 Riff K (Repeat 4 times)
|-----------------------------------------------------|    |---|
|-----------------------------------------------------|    |---|
|-----------------------------------------------------|    |---|
|-----------------------------------------------------|    |---|
|-----------------------------------------------------|    |-7-|
|-555555555555-111111111111-000000000000-444444444444-|    |-5-|
  ............ ............ ............ ............


 Riff L
|------------------------------|
|------------------------------|
|------------------------------|
|------------------------------|
|-7--3--2--6--7--3--2--6--7--7-|
|-5--1--0--4--5--1--0--4--5--5-|



 flames of hate - gates of love
 the good decays when he arrives
 halls of hate
 slaughter, genocide
 halls of death
 my gory life
 dungeons of misery
 pits of utumno
 death is approaching life
 lifeless creatures come into existence
 corporal death - emptiness inside
 the undead will lead a distressing life
 sacrilegious action, the dark side
 contempt in death for humanity
 ragged carcasses shred threads of life
 the insane, cold blooded, march to die
 obscure cycles of plinacy
 fair hollowness screaming in their skulls
 dusk falls while shadows are extending
 darkness constructed - blasphemy of life
 halls of hate
 strength of madness
 halls of death
 no sense anymore


************************************

| .   palm mute
| /   slide up
| \   slide down
| h   hammer-on
| p   pull-off
| ~   vibrato
| +   harmonic
| x   Mute note
| b   Bend
| pb  Pre-bend
| br  Bend release
| pbr Pre-bend release
| brb Bend release bend

************************************

            
            
Suggest correction
Creating personal tab
Creating personal tab
You can edit any tab online and save it as your Personal.

You can edit, replace or remove any tab part or add personal notes – all changes will be seen only by you.

Personal tabs can be accessed anytime from any device, even offline.
Learn more »
Give kudos to tab author, rate the tab!
1 2 3 4 5
comments
print report bad tab
guest
You may want to rate the tab now too:
select rating
Wanna post a correction for this tab? Suggest correction