Oops, an error
Loading. Please wait.

Home tab

by morgxn
436 views 18 this week
no commentswrite comment
1 2 3 4 5
x 3
add to favorites
×
Save as Personal and add changes to this tab that will be seen only by you. Learn more ›
×
You can save this tab as Personal to edit and correct it or add notes. All changes will be seen only by you. Learn more »
launch autoscroll
font size
0
reset
how to read this tab
guitar tuner
edit
Autoscroll
slow
fast
+/-
esc
set tempo
stop
About this tab version
Morgxn.com - band website. A tab for this song doesn't exist. The song is about to hit the charts and a ton of people will be searching for the tabs. Was this info helpful? Yes No
Tuning: Drop D (DADGBe)

This could also be played on bass
(aside from the chorus), but I've interpreted
this for a solo guitarist.

Verse and Chorus timings to
https://youtu.be/1vaUdDWf5Dg

[Intro/Verse 1] 
(0:00)
e|------------------------------------|
B|------------------------------------|
G|------------------------------------|
D|------------------------------------| \
A|------------------------------------|
E|-7-7--7-5-2-2--0-2-3-3--3-2-2-2-5---|
                                          (x5)
e|------------------------------------|
B|------------------------------------|
G|------------------------------------| /
D|------------------------------------|
A|--------------------------------0-3-|
E|-7-7--7-5-2-2--0-2-3-3--3-2-2-2-----|

[Chorus 1] 
(0:48)
e|-----------|------------|-----------|--------|
B|-----------|------------|-----------|--------|
G|-5~--9~-7~-|-5~--12~-7~-|-5~--9~-7~-|-5~--7~-|
D|-3~--7~-5~-|-3~--10~-5~-|-3~--7~-5~-|-3~--5~-|
A|-3~--7~-5~-|-3~--10~-5~-|-3~--7~-5~-|-3~--5~-|
E|-3~--7~-5~-|-3~--10~-5~-|-3~--7~-5~-|-3~--5~-|

[Post-Chorus] 
(1:08)
e|------------------------------------|
B|------------------------------------|
G|------------------------------------|
D|------------------------------------|
A|------------------------------------|
E|-7-7--7-5-2-2--0-2-3-3--3-2-2-2-5---|

e|------------------------------------|
B|------------------------------------|
G|------------------------------------|
D|------------------------------------|
A|--------------------------------0-3-|
E|-7-7--7-5-2-2--0-2-3-3--3-2-2-2-----|

[Verse 2] 
(1:17)
e|------------------------------------|
B|------------------------------------|
G|------------------------------------|
D|------------------------------------|
A|------------------------------------|
E|---------------0-2-3-3--3-2-2-2-5---|

e|------------------------------------|
B|------------------------------------|
G|------------------------------------|
D|------------------------------------|
A|--------------------------------0-3-|
E|-7-7--7-5-2-2--0-2-3-3--3-2-2-2-----|

e|------------------------------------|
B|------------------------------------|
G|------------------------------------|
D|------------------------------------| \
A|------------------------------------|
E|-7-7--7-5-2-2--0-2-3-3--3-2-2-2-5---|
                                          (x2)
e|------------------------------------|
B|------------------------------------|
G|------------------------------------| /
D|------------------------------------|
A|--------------------------------0-3-|
E|-7-7--7-5-2-2--0-2-3-3--3-2-2-2-----|

[Chorus 2] 
(1:46)
e|-----------|------------|-----------|--------|
B|-----------|------------|-----------|--------|
G|-5~--9~-7~-|-5~--12~-7~-|-5~--9~-7~-|-5~--7~-|
D|-3~--7~-5~-|-3~--10~-5~-|-3~--7~-5~-|-3~--5~-|
A|-3~--7~-5~-|-3~--10~-5~-|-3~--7~-5~-|-3~--5~-|
E|-3~--7~-5~-|-3~--10~-5~-|-3~--7~-5~-|-3~--5~-|

[Post-Chorus] 
(2:05)
e|------------------------------------|
B|------------------------------------|
G|------------------------------------|
D|------------------------------------| \
A|------------------------------------|
E|-7-7--7-5-2-2--0-2-3-3--3-2-2-2-5---|
                                          (x2)
e|------------------------------------|
B|------------------------------------|
G|------------------------------------| /
D|------------------------------------|
A|--------------------------------0-3-|
E|-7-7--7-5-2-2--0-2-3-3--3-2-2-2-----|

[Bridge/Chorus 3] 
(2:25)
e|------------------------------------|
B|------------------------------------|
G|------------------------------------|
D|------------------------------------| \
A|------------------------------------|
E|-3-3--3-3-3-3--3-3-7-7--7-5-5--5----|
                                          (x6)
e|------------------------------------|
B|------------------------------------|
G|------------------------------------| /
D|------------------------------------|
A|------------------------------------|
E|-3-3--3-3-3-3--3-3-10-10--10-5-5--5-|

[Outro] 
(3:22)
e|------------------------------------|
B|------------------------------------|
G|------------------------------------|
D|------------------------------------|
A|------------------------------------|
E|-7-7--7-5-2-2--0-2-3-3--3-2-2-2-5---|

e|------------------------------------|
B|------------------------------------|
G|------------------------------------|
D|------------------------------------|
A|------------------------------------|
E|-7-7--7-5-2-2--0-2-3-3--3-2-2-2-----|


***********************************

| ~ Vibrato

***********************************

            
            
Suggest correction
Creating personal tab
Creating personal tab
You can edit any tab online and save it as your Personal.

You can edit, replace or remove any tab part or add personal notes – all changes will be seen only by you.

Personal tabs can be accessed anytime from any device, even offline.
Learn more »
Give kudos to tab author, rate the tab!
1 2 3 4 5
comments
print report bad tab
guest
You may want to rate the tab now too:
select rating
Wanna post a correction for this tab? Suggest correction