Oops, an error
Loading. Please wait.

All Wrong bass

7,487 views 6 this week
1 commentread comment
1 2 3 4 5
x 3
add to favorites
×
Save as Personal and add changes to this tab that will be seen only by you. Learn more ›
×
You can save this tab as Personal to edit and correct it or add notes. All changes will be seen only by you. Learn more »
launch autoscroll
font size
0
reset
guitar tuner
edit
Autoscroll
slow
fast
+/-
esc
set tempo
stop
Author
Artist:Morphine
Song:All Wrong

Riff I
G--------------------------------------------------------------|
D--------------0---------------0-3-----------0-----------------|
A-----0-5-0-3----------0-5-0-3---------0-5-3---3-2-0-3-0-3-2---|
D-0-0--------------0-0-------------0-0-----------------------3-|

Riff II
G--------------------------------------------------------------|
D--------------------------------------------------------------|
A---10-8-10-8---7-5-8---------------—--------------------------|
D--------------------------------------------------------------|

Contributions welcome,
Carlos Santos Jr. – carlosdennerjunior@yahoo.com.br

            
            
Suggest correction
Creating personal tab
Creating personal tab
You can edit any tab online and save it as your Personal.

You can edit, replace or remove any tab part or add personal notes – all changes will be seen only by you.

Personal tabs can be accessed anytime from any device, even offline.
Learn more »
Give kudos to tab author, rate the tab!
1 2 3 4 5
comments
print report bad tab
1 comment total.
+2 reply
JAStewart 7,264 Oct 07, 2011 07:54 AM

Mark would play with on only two strings, putting the D and G strings into the regular A and D slots and tuning the G up one step. Thusly, the song would play like such:

A-------5-0-3-3-|-------5-0-3-5-8-
D-0-0-0---------|-0-0-0-----------

guest
You may want to rate the tab now too:
select rating
Wanna post a correction for this tab? Suggest correction