Oops, an error
Loading. Please wait.

Bengali In Platforms tab

version 2
version 2

Whole song

238 views 3 this week
no commentswrite comment
1 2 3 4 5
3 more votes to show rating
add to favorites
×
Save as Personal and add changes to this tab that will be seen only by you. Learn more ›
×
You can save this tab as Personal to edit and correct it or add notes. All changes will be seen only by you. Learn more »
launch autoscroll
font size
0
reset
how to read this tab
guitar tuner
edit
Autoscroll
slow
fast
+/-
esc
set tempo
stop
Author
I have just tabbed the little guitar riffs throughout the song


[Verse]

Bengali, Bengali
Bengali, Bengali
No No No 
He does not want to depress you
Oh no no no no
He only wants to impress you
Oh..

e|----------------------|
B|----------------------|
G|----------------------|
D|-14-14-14-14----------|
A|-------------15\12----|
E|----------------------|

Bengali in platforms

e|----------------------|
B|----------------------|
G|----------------------|
D|-14-15-14-------------|
A|----------15-12-------|
E|----------------------|

He only wants to embrace your culture

e|--------------------------------------------------|
B|-------12-------12-------12-------12-------12TR13-|
G|----12-------12-------12-------12-------12--------|
D|-14-------14-------14-------14-------14-----------|
A|--------------------------------------------------|
E|--------------------------------------------------|

And to be your friend forever
Forever


Bengali, Bengali

e|--------------------------------|
B|--------------------------------|
G|--------------------------------|
D|-12-12-10-12-14-12-10-12--------|
A|--------------------------------|
E|--------------------------------|

Bengali, Bengali

e|--------------------------------|
B|--------------------------------|
G|--------------------------------|
D|-12-12-10-12-14-15-14-12-10-12--|
A|--------------------------------|
E|--------------------------------|


[Chorus]

e|---------------------------------------------------------------------------|
B|-13-13-15-15-17-17--------------13-13-15-15-13---13-13-17-17-15-15-13-13---|
G|-------------------12-12-14-14---------------------------------------------|
D|---------------------------------------------------------------------------|
A|---------------------------------------------------------------------------|
E|---------------------------------------------------------------------------|

e|--------------------------|
B|-------13-13-13-15-15-13--|
G|-12-14--------------------|
D|--------------------------|
A|--------------------------|
E|--------------------------|  (x2)

Oh shelve your Western plans,
And understand
That life is hard enough when you belong here

The silver studded rim that glistens
And an ankle star that blinds me
A lemon sole so very high
Which only reminds me
To tell you


[Verse]

e|----------------------|
B|----------------------|
G|----------------------|
D|-14-14-14-14----------|
A|-------------15/12----|
E|----------------------|

Break the news gently

e|----------------------|
B|----------------------|
G|----------------------|
D|-14-15-14-------------|
A|----------15-12-------|
E|----------------------|

Break the news to him gently

e|--------------------------------------------------|
B|-------12-------12-------12-------12-------12TR13-|
G|----12-------12-------12-------12-------12--------|
D|-14-------14-------14-------14-------14-----------|
A|--------------------------------------------------|
E|--------------------------------------------------|

Shelve your plans, shelve your plans, shelve them

Bengali, Bengali

e|--------------------------------|
B|--------------------------------|
G|--------------------------------|
D|-12-12-10-12-14-12-10-12--------|
A|--------------------------------|
E|--------------------------------|

It's the touchy march of time that binds you
Don't blame me
Don't hate me

e|--------------------------------|
B|--------------------------------|
G|--------------------------------|
D|-12-12-10-12-14-15-14-12-10-12--|
A|--------------------------------|
E|--------------------------------|

Just because I'm the one to tell you


[Chorus]

e|---------------------------------------------------------------------------|
B|-13-13-15-15-17-17--------------13-13-15-15-13---13-13-17-17-15-15-13-13---|
G|-------------------12-12-14-14---------------------------------------------|
D|---------------------------------------------------------------------------|
A|---------------------------------------------------------------------------|
E|---------------------------------------------------------------------------|

e|--------------------------|
B|-------13-13-13-15-15-13--|
G|-12-14--------------------|
D|--------------------------|
A|--------------------------|
E|--------------------------| (x2)

That life is hard enough when you belong here
That life is hard enough when you belong here


[Violin solo]

Oh...
Shelve your Western plans
Oh...
Shelve your Western plans

e|---------------------------------------------------------------------------|
B|-13-13-15-15-17-17--------------13-13-15-15-13---13-13-17-17-15-15-13-13---|
G|-------------------12-12-14-14---------------------------------------------|
D|---------------------------------------------------------------------------|
A|---------------------------------------------------------------------------|
E|---------------------------------------------------------------------------|

e|--------------------------|
B|-------13-13-13-15-15-13--|
G|-12-14--------------------|
D|--------------------------|
A|--------------------------|
E|--------------------------|    (repeat)

Cause life is hard enough when you belong
Life is hard enough when you belong here




************************************
| \   Slide down
| TR  Trill
************************************

            
            
Suggest correction
Creating personal tab
Creating personal tab
You can edit any tab online and save it as your Personal.

You can edit, replace or remove any tab part or add personal notes – all changes will be seen only by you.

Personal tabs can be accessed anytime from any device, even offline.
Learn more »
Give kudos to tab author, rate the tab!
1 2 3 4 5
comments
print report bad tab
guest
You may want to rate the tab now too:
select rating
Wanna post a correction for this tab? Suggest correction