Oops, an error
Loading. Please wait.

Ouija Board Ouija Board tab

704 views 6 this week
1 commentread comment
1 2 3 4 5
x 5
add to favorites
×
Save as Personal and add changes to this tab that will be seen only by you. Learn more ›
×
You can save this tab as Personal to edit and correct it or add notes. All changes will be seen only by you. Learn more »
launch autoscroll
font size
0
reset
how to read this tab
guitar tuner
edit
Autoscroll
slow
fast
+/-
esc
set tempo
stop
Morrissey - Oujia Board Oujia Board

This is in the key of D. Some people use a capo on the 2nd fret and mistakenly call the chords C, E, Am, G, 
and F, but those are just the chord shapes, for chugging along with rhythm guitar. If you want to play the 
song as it sounds, and know the actual chords and notes, they are written down here. Capo not needed.


The main arpeggio goes like this:
    D                 F#                 Bm        A         G
E |---5--5-----5--5------------------------------------------------------------
B |--7--7--7--7--7--7---7--7-----7--7------7--7------5--5------3--3-----3--3---
G |-7--7--7--7--7--7---6--6--6--6--6--6---7--7--7---6--6--6---4--4--4--4--4--4-
D |-------------------8--8--8--8--8--8---7--7--7---7--7--7---5--5--5--5--5--5--
A |----------------------------------------------------------------------------
E |----------------------------------------------------------------------------
The Bm and A are played half as long as the other chords. You can also play the D and F# up at the 10th 
and 11th frets. This way is just easier to tab.


A piano plays these chords in the background (tabbed for guitar, pluck and release quickly):
    D                 F#                 Bm        A         G
E |-5--5-5---5--5-5---6--6-6---6--6-6----7---7-7---5---5-5---3--3-3---3--3-3---
B |-7--7-7---7--7-7---7--7-7---7--7-7----7---7-7---5---5-5---3--3-3---3--3-3---
G |-7--7-7---7--7-7---6--6-6---6--6-6----7---7-7---6---6-6---4--4-4---4--4-4---
D |-------------------8--8-8---8--8-8----7---7-7---7---7-7---5--5-5---5--5-5---
A |----------------------------------------------------------------------------
E |----------------------------------------------------------------------------
Both of these main lines together have a staccato, harpsichord-like sound, so you might want to find some 
guitar effects that can achieve a similar sound. The background piano plucking has a short delay with several 
repeats.


The “She has now gone” part (continue argpeggio but with the different chord sequence)

G (deep tremolo bar bend)     F#               D          Bm
She has now gone...,          From this unhappy planet

              G               D        A
With all the ......., and the ..... on it



The “Hear my voice” part (continue argpeggio but with the different chord sequence)

          F#         Bm             F#       G   A
Hear my voice, ........, Hear my voice, ....


Other guitars (these are repeated throughout the song):

Fuzz guitar, about 0:55,     Clean background guitar @1:02       
strike a D power chord   
    D                        F#             Bm       A    G
E |-----------------------------------------7--9-7----------------------
B |-----------------------------------------7--7-7---5--7---3-----------
G |-7~~~---------------------3-----3--------7--7-7----------4-----------
D |-7~~~-----------------------4------------7--7-7----------------------
A |-5~~~-------------------------4--------------------------------------
E |---------------------------------------------------------------------


Fuzz guitar solo near the end (starts around 2:08)
    D               F#        Bm          A         G
E |-------------------------------------------------------------
B |-------------------------------------------------------------
G |-7~~/11--11-11---3--3---3------------------------------------
D |-7~~/12--12-12---4---4-----4-7---5-4---4h5-4-2-2/4-4---------
A |-5~~-------------4----4--------------------------------------
E |-------------------------------------------------------------


Repeat Fuzz guitar solo with some extra notes at the end
    D               F#        Bm         A         G
E |----------------------------------------------------------------------------
B |----------------------------------------------------------------------------
G |-7~~/11--11-11--\3--3---3---------------------------7-7/9--9--7/9--9/11—11\4
D |-7~~/12--12-12--\4---4-----4-7---5-4--4h5-4-2-2/4-4------------------------
A |-5~~/12--12-12--\4----4-----------------------------------------------------
E |----------------------------------------------------------------------------



            
            
Suggest correction
Creating personal tab
Creating personal tab
You can edit any tab online and save it as your Personal.

You can edit, replace or remove any tab part or add personal notes – all changes will be seen only by you.

Personal tabs can be accessed anytime from any device, even offline.
Learn more »
comments
print report bad tab
1 comment total.
+1 reply
whitherbottom 454 Aug 22, 2015 04:15 AM, edited at 03:05 pm

wow, three out of five stars for this tab - the only tab for this song. Probably from someone who doesn't understand tab...

guest
You may want to rate the tab now too:
select rating
Wanna post a correction for this tab? Suggest correction