Oops, an error
Loading. Please wait.

Terminate Damnation tab

1,033 views 1 this week
no commentswrite comment
1 2 3 4 5
3 more votes to show rating
add to favorites
×
Save as Personal and add changes to this tab that will be seen only by you. Learn more ›
×
You can save this tab as Personal to edit and correct it or add notes. All changes will be seen only by you. Learn more »
launch autoscroll
font size
0
reset
how to read this tab
guitar tuner
edit
Autoscroll
slow
fast
+/-
esc
set tempo
stop
Author
Terminate Damnation
by Mortification
Tabbed by Ben Wright a.k.a. BloodNChunks (iaminchrist3@hotmail.com)

tr=trill
r=rest (let off/mute the note after hitting it, don't let it ring)

Tuning in C

~[Riff 1]~~~~~~~~~~~~~~~~~~~~~~~~~~~~~~~~~~~~~~~~~~~~~~~~~~~~~~~~~~~~~~~~~~~~~

 C|------------------------|
 G|------------------------|
Eb|------------------------| x6
Bb|3-4-5-------2-3-4-------|
 F|1-2-3-5-4-3-0-1-2-4-3-2-|
 C|------3-2-1-------2-1-0-|

~[Riff 2]~~~~~~~~~~~~~~~~~~~~~~~~~~~~~~~~~~~~~~~~~~~~~~~~~~~~~~~~~~~~~~~~~~~~~

 C|---------------------------------------|
 G|---------------------------------------|
Eb|---------------------------------------|
Bb|---------------------------------------| x4
 F|--2r-------2r-------2r-----------2---2r|
 C|--0r-------0r-------0r-------0-1---1-0r|
On the last repetition of riff 2 you hold the two last power chords before the fast sequence.
Listen to the song to get it.

~[Riff 3]~~~~~~~~~~~~~~~~~~~~~~~~~~~~~~~~~~~~~~~~~~~~~~~~~~~~~~~~~~~~~~~~~~~~~

 C|-----------------------------------------------------------|
 G|-----------------------------------------------------------|
Eb|-----------------------------------------------------------|
Bb|-----------------------------------------------------------|
 F|-2-2-2-2-2-2-2-2-2-2-2-2-2-2-2-2-3-2-2-2-2-2-2-2-2-----2---|
 C|-0-0-0-0-0-0-0-0-0-0-0-0-0-0-0-0-1-0-0-0-0-0-0-0-0-0-1---1-|\
PM --------------------------------   ---------------           \
                                                                 >-x5
 C|-----------------------------------------------------------| /
 G|-----------------------------------------------------------|/
Eb|-----------------------------------------------------------|
Bb|-----------------------------------------------------------|
 F|-2-2-2-2-2-2-2-2-2-2-2-2-2-2-2-2-5-2-2-2-2-2-2-2-2-----2---|
 C|-0-0-0-0-0-0-0-0-0-0-0-0-0-0-0-0-3-0-0-0-0-0-0-0-0-0-1---1-|
PM  -------------------------------   ---------------
~[Riff 3b]~~~~~~~~~~~~~~~~~~~~~~~~~~~~~~~~~~~~~~~~~~~~~~~~~~~~~~~~~~~~~~~~~~~~

 C|------------------------------------------------------|
 G|------------------------------------------------------|
Eb|------------------------------------------------------|
Bb|------------------------------------------------------|
 F|-2-2-2-2-2-2-2-2-2-2-2-2-2-2-2-2-3-2-2-2-2-2-----2---2|
 C|-0-0-0-0-0-0-0-0-0-0-0-0-0-0-0-0-1-0-0-0-0-0-0-1---1-0|                        \
PM  -------------------------------   ---------                                    \
                                                                                    >-x1
 C|------------------------------------------------------------------------------| /
 G|------------------------------------------------------------------------------|/
Eb|------------------------------------------------------------------------------|
Bb|------------------------------------------------------------------------------|
 F|-2-2-2-2-2-2-2-2-2-2-2-2-2-2-2-2-5-2-2-2-2-2---1-2---1-2-3-----1-2---------1--|
 C|-0-0-0-0-0-0-0-0-0-0-0-0-0-0-0-0-3-0-0-0-0-0-0-----0-------2-0-----0-1-2-3---0|
PM  -------------------------------   ---------
~[Riff 4]~~~~~~~~~~~~~~~~~~~~~~~~~~~~~~~~~~~~~~~~~~~~~~~~~~~~~~~~~~~~~~~~~~~~~
Very fast alternate picking here (pretty sure I have this right)
 C|--------------------------------------------------|
 G|--------------------------------------------------|
Eb|--------------------------------------------------| x4
Bb|--------------------------------------------------|
 F|222111333222--------------------222111333222-4-3-2|
 C|------------22330000000000000000-------------2-1-0|

~[Riff 5]~~~~~~~~~~~~~~~~~~~~~~~~~~~~~~~~~~~~~~~~~~~~~~~~~~~~~~~~~~~~~~~~~~~~~

 C|--------------------------------|
 G|--------------------------------|
Eb|--------------------------------| x4
Bb|-4-3-5-4--------4-3-5-4---------|
 F|-2-1-3-2-4-5-2--2-1-3-2-4-3-2---|
 C|---------2-3-0----------2-1-0---|

~then riff 1 x6~

~[Riff 6]~~~~~~~~~~~~~~~~~~~~~~~~~~~~~~~~~~~~~~~~~~~~~~~~~~~~~~~~~~~~~~~~~~~~~

 C|--------------------------------------------------------|
 G|--------------------------------------------------------|
Eb|--------------------------------------------------------| x6
Bb|-------------------------------1-----------------------1|
 F|-------2-3-----1-------2-3-------------2-3-----1--------|
 C|-0-0-0-----1-2---0-0-0-----1-2---0-0-0-----1-2-----1-2--|
PM  - - -           - - -           - - -

~[Riff 7]~~~~~~~~~~~~~~~~~~~~~~~~~~~~~~~~~~~~~~~~~~~~~~~~~~~~~~~~~~~~~~~~~~~~~
                                                                     _
 C|----------------------------------------------------------------|  \
 G|----------------------------------------------------------------|   |
Eb|----------------------------------------------------------------|   |
Bb|----------------------------------------------------------------|   |
 F|-2-2-2-2-2-2-2-2-1-2-----2-3-----2-2-2-2-2-2-2-2-----2-3-----1-2|   |
 C|-0-0-0-0-0-0-0-0-----1-2-----2-3-0-0-0-0-0-0-0-0-1-2-----1-2----|   |
PM  - - - - - - - -                 - - - - - - - -                    |
                                                                       |
 C|----------------------------------------------------------------|   |
 G|----------------------------------------------------------------|   |
Eb|----------------------------------------------------------------|   |
Bb|----------------------------------------------------------------|   |
 F|-2-2-2-2-2-2-2-2-1-2-----2-3-----5-5-5-5-5-5-5-5-----2-3-----1-2|   |
 C|-0-0-0-0-0-0-0-0-----1-2-----2-3-3-3-3-3-3-3-3-3-1-2-----1-2----|   |
PM  - - - - - - - -                 - - - - - - - -                    |
                                                                       |
 C|--------------------------------|                                   |
 G|--------------------------------|                                   |
Eb|--------------------------------|                                   |
Bb|--------------------------------|                                    \
 F|-3-3-3-3-3-3-3-3-1-2-----2-3----|                                     >-all this only once
 C|-1-1-1-1-1-1-1-1-----1-2-----2-3|                                    /
PM  - - - - - - - -                                                    |
                                                                       |
 C|-----------------------------------------------------------------|  |
 G|-----------------------------------------------------------------|  |
Eb|-----------------------------------------------------------------|  |
Bb|-----------------------------------------------------------------|  |
 F|2222222222222222-1-2-----2-3-----2222222222222222-----2-3-----1-2|  |
 C|0000000000000000-----1-2-----2-3-0000000000000000-1-2-----1-2----|  |
PM ----------------                 ----------------                   |
                                                                       |
 C|-----------------------------------------------------------------|  |
 G|-----------------------------------------------------------------|  |
Eb|-----------------------------------------------------------------|  |
Bb|-----------------------------------------------------------------|  |
 F|2222222222222222-1-2-----2-3-----5555555555555555-----2-3-----1-2|  |
 C|0000000000000000-----1-2-----2-3-3333333333333333-1-2-----1-2----|  |
PM ----------------                 ---------------                    |
                                                                       |
 C|-----------------------------------------------------------------|  |
 G|-----------------------------------------------------------------|  |
Eb|-----------------------------------------------------------------|  |
Bb|-----------------------------------------------------------------|  |
 F|3333333333333333-1-2-----2-3-----5555555555555555-----2-3-----1-2|  |
 C|1111111111111111-----1-2-----2-3-3333333333333333-1-2-----1-2----|  |
PM ----------------                 ----------------                 _/

~[Riff 8]~~~~~~~~~~~~~~~~~~~~~~~~~~~~~~~~~~~~~~~~~~~~~~~~~~~~~~~~~~~~~~~~~~~~~

 C|-----------------------------------------------------------------|
 G|-----------------------------------------------------------------|
Eb|-----------------------------------------------------------------|
Bb|--------------------------4---3---------------------------4---3tr|
 F|-------------2------------2---1------------5-4-3----------2------|
 C|0000000000-1---1-00000000-------0000000000-3-2-1-00000000--------|\
PM ----------       --------       ----------       --------          \
                                                                       >-x2
 C|-----------------------------------------------------------------| /
 G|-----------------------------------------------------------------|/
Eb|-----------------------------------------------------------------|
Bb|--------------------------4-------------------------------4---3tr|
 F|-------------2------------2---1tr----------5-4-3----------2------|
 C|0000000000-1---1-00000000-------0000000000-3-2-1-00000000--------|
PM ----------       --------       ----------       --------

~[Riff 9]~~~~~~~~~~~~~~~~~~~~~~~~~~~~~~~~~~~~~~~~~~~~~~~~~~~~~~~~~~~~~~~~~~~~~

 C|-----------------------------------------------------|
 G|-----------------------------------------------------|
Eb|-----------------------------------------------------|\____________________
Bb|-----------------------------------------------------|/                    \
 F|---------------------------------3---------------2---|                      \
 C|-0-0-0-0-0-0-0-0-0-0-0-0-0-0-0-0-1-0-0-0-0-0-0-1---1-|                       \
PM  -------------------------------   ---------                                  \
                                                                                  \
 C|-----------------------------------------------------|                          \
 G|-----------------------------------------------------|                           \
Eb|-----------------------------------------------------|\__________________________/\
Bb|-----------------------------------------------------|/                            \
 F|---------------------------------5---------------2---|                              >-all this x3
 C|-0-0-0-0-0-0-0-0-0-0-0-0-0-0-0-0-3-0-0-0-0-0-0-1---1-|                             /
                                                                                     /
 C|------------------------------------------------------------------------------|  /
 G|------------------------------------------------------------------------------| /
Eb|------------------------------------------------------------------------------|/
Bb|------------------------------------------------------------------------------|
 F|---------------------------------3-------------1-2---1-2-3-----1-2---------1--|
 C|-0-0-0-0-0-0-0-0-0-0-0-0-0-0-0-0-1-0-0-0-0-0-0-----0-------2-0-----0-1-2-3---0|
PM---------------------------------   -----------

~Then play Riff 4 x4~

~Then play Riff 5 x2~

~Then play Riff 1 x6~

~Then congratulate yourself for learning and playing Terminate Damnation!~

Tabbed by Ben Wright a.k.a. BloodNChunks (iaminchrist3@hotmail.com)
Please give me the credit if you use any part of this tab.

            
            
Suggest correction
Creating personal tab
Creating personal tab
You can edit any tab online and save it as your Personal.

You can edit, replace or remove any tab part or add personal notes – all changes will be seen only by you.

Personal tabs can be accessed anytime from any device, even offline.
Learn more »
Give kudos to tab author, rate the tab!
1 2 3 4 5
comments
print report bad tab
guest
You may want to rate the tab now too:
select rating
Wanna post a correction for this tab? Suggest correction