Oops, an error
Loading. Please wait.

Pleas tab

211 views 3 this week
no commentswrite comment
1 2 3 4 5
3 more votes to show rating
add to favorites
×
Save as Personal and add changes to this tab that will be seen only by you. Learn more ›
×
You can save this tab as Personal to edit and correct it or add notes. All changes will be seen only by you. Learn more »
launch autoscroll
font size
0
reset
how to read this tab
guitar tuner
edit
Autoscroll
slow
fast
+/-
esc
set tempo
stop
Author
Difficulty
[Intro]

e|------------------|------------------|------------------|------------------|------------------|
B|----4--------4----|----4--------4----|----6--------6----|----6--------6----|----8--------8----|
G|----3--------3----|----3--------3----|----5--------5----|----5--------5----|----7--------7----|
D|-------1--------1-|-------1----------|-------3--------3-|-------3--------3-|-------5--------5-|
A|-2--------2-------|-3--------3-------|-4--------4-------|-5--------5-------|-6--------6-------|
E|------------------|------------------|------------------|------------------|------------------|
  (oooohhhhhh...) 


[Verse 1]

e|------------------------------------------------|------------------------------------------------|
B|----8-------------------------------------------|------------------------------------------------|
G|----7--------7--------7--------7--------7-------|----6--------6--------6--------6--------6-------|
D|-------5--------5--------5--------5--------5----|-------5--------5--------5--------5--------5----|
A|-7--------7--------7--------7--------7----------|-7--------7--------7--------7--------7----------|
E|----------------------------------------------5-|------------------------------------------------|
               Can   you talk   in  mo - no     chrome, 

e|------------------------------------------------|------------------------------------------------|
B|------------------------------------------------|------------------------------------------------|
G|----9--------9--------9--------9--------9-------|----9--------9--------9--------9--------9-------|
D|-------7--------7--------7--------7--------7----|-------7--------7--------7--------7--------7----|
A|-9--------9--------9--------9--------9--------9-|-8--------8--------8--------8--------8----------|
E|------------------------------------------------|------------------------------------------------|
   please,                                          please?

e|------------------------------------------------|------------------------------------------------|
B|------------------------------------------------|------------------------------------------------|
G|----7--------7--------7--------7--------7-------|----6--------6--------6--------6--------6-------|
D|-------5--------5--------5--------5--------5----|-------5--------5--------5--------5--------5----|
A|-7--------7--------7--------7--------7----------|-7--------7--------7--------7--------7----------|
E|----------------------------------------------5-|------------------------------------------------|
              Throw this vehi - cle, frame my   bone

e|------------------------------------------------|------------------------------------------------|
B|------------------------------------------------|------------------------------------------------|
G|----9--------9--------9--------9--------9-------|----9--------9--------9--------9--------9-------|
D|-------7--------7--------7--------7--------7----|-------7--------7--------7--------7--------7----|
A|-9--------9--------9--------9--------9--------9-|-8--------8--------8--------8--------8----------|
E|------------------------------------------------|------------------------------------------------|
   please,                                          please

e|------------------------------------------------|------------------------------------------------|
B|------------------------------------------------|------------------------------------------------|
G|----7--------7--------7--------7--------7-------|----6--------6--------6--------6--------6-------|
D|-------5--------5--------5--------5--------5----|-------5--------5--------5--------5--------5----|
A|-7--------7--------7--------7--------7----------|-7--------7--------7--------7--------7----------|
E|----------------------------------------------5-|------------------------------------------------|
               No - body's   loved me     be  -  fore,

e|------------------------------------------------|------------------------------------------------|
B|------------------------------------------------|------------------------------------------------|
G|----9--------9--------9--------9--------9-------|----9--------9--------9--------9--------9-------|
D|-------7--------7--------7--------7--------7----|-------7--------7--------7--------7--------7----|
A|-9--------9--------9--------9--------9--------9-|-8--------8--------8--------8--------8----------|
E|------------------------------------------------|------------------------------------------------|
   please,                                          please

e|------------------------------------------------|------------------------------------------------|
B|------------------------------------------------|------------------------------------------------|
G|----7--------7--------7--------7--------7-------|----6--------6--------6--------6--------6-------|
D|-------5--------5--------5--------5--------5----|-------5--------5--------5--------5--------5----|
A|-7--------7--------7--------7--------7----------|-7--------7--------7--------7--------7----------|
E|----------------------------------------------5-|------------------------------------------------|
               Ne - ver felt  a  -  ny    one    more

e|------------------------------------------------|------------------------------------------------|
B|------------------------------------------------|-------------------------------------10---------|
G|----9--------9--------9--------9--------9-------|----9--------9--------9-----------9-------------|
D|-------7--------7--------7--------7--------7----|-------7--------7--------7-----7----------------|
A|-9--------9--------9--------9--------9--------9-|-8--------8--------8--------8-------------------|
E|------------------------------------------------|------------------------------------------------|
   please,                                          please


[Chorus 1]

   +                                                +
e|------------------------------------------------|------------------------------------------------|
B|-8--8--------8--------8--------8----------------|-5--5--------5--------5--------5--------5-------|
G|-7--7--------7--------7--------7----------------|-6--6--------6--------6--------6--------6-------|
D|-5-----5--------5--------5--------5-------------|-5-----5--------5--------5--------5--------5----|
A|-7--------7--------7--------7--------7----------|-7--------7--------7--------7--------7----------|
E|------------------------------------------------|------------------------------------------------|
   (oooohhhhhh...)         Why   don't you   give         me 

   +                                                +
e|------------------------------------------------|------------------------------------------------|
B|10-10-------10-------10-------10-------10-------|10-10-------10-------10-------10-------10-------|
G|-9--9--------9--------9--------9--------9-------|-9--9--------9--------9--------9--------9-------|
D|-7-----7--------7--------7--------7--------7----|-7-----7--------7--------7--------7--------7----|
A|-9--------9--------9--------9--------9----------|-8--------8--------8--------8--------8----------|
E|------------------------------------------------|------------------------------------------------|
                           what        I     want

   +                                                +
e|------------------------------------------------|------------------------------------------------|
B|-8--8--------8--------8--------8--------8-------|-5--5--------5--------5--------5--------5-------|
G|-7--7--------7--------7--------7--------7-------|-6--6--------6--------6--------6--------6-------|
D|-5-----5--------5--------5--------5--------7----|-5-----5--------5--------5--------5--------5----|
A|-7--------7--------7--------7--------7----------|-7--------7--------7--------7--------7----------|
E|------------------------------------------------|------------------------------------------------|
   (oooohhhhhh...)         Love  you   don't give         your   -   self         will

   +                                                +
e|------------------------------------------------|------------------------------------------------|
B|10-10-------10-------10-------10-------10-------|10-10-------10-------10-10----------------------|
G|-9--9--------9--------9--------9--------9-------|-9--9--------9--------9--9----------------------|
D|-7-----7--------7--------7--------7--------7----|-7-----7--------7--------7----------------------|
A|-9--------9--------9--------9--------9----------|-8--------8--------8-----8----------------------|
E|------------------------------------------------|------------------------------------------------|
                           al     -    ways  haunt


[Verse 2]

e|------------------------------------------------|------------------------------------------------|
B|------------------------------------------------|------------------------------------------------|
G|----7--------7--------7--------7--------7-------|----6--------6--------6--------6--------6-------|
D|-------5--------5--------5--------5--------5----|-------5--------5--------5--------5--------5----|
A|-7--------7--------7--------7--------7----------|-7--------7--------7--------7--------7----------|
E|----------------------------------------------5-|------------------------------------------------|
               Drag  me limp     in to    the   light

e|------------------------------------------------|------------------------------------------------|
B|------------------------------------------------|------------------------------------------------|
G|----9--------9--------9--------9--------9-------|----9--------9--------9--------9--------9-------|
D|-------7--------7--------7--------7--------7----|-------7--------7--------7--------7--------7----|
A|-9--------9--------9--------9--------9--------9-|-8--------8--------8--------8--------8----------|
E|------------------------------------------------|------------------------------------------------|
               Hang  my head              up to the sky

e|------------------------------------------------|------------------------------------------------|
B|------------------------------------------------|------------------------------------------------|
G|----7--------7--------7--------7--------7-------|----6--------6--------6--------6--------6-------|
D|-------5--------5--------5--------5--------5----|-------5--------5--------5--------5--------5----|
A|-7--------7--------7--------7--------7----------|-7--------7--------7--------7--------7----------|
E|----------------------------------------------5-|------------------------------------------------|
              Fight your fear           with little lights

e|------------------------------------------------|------------------------------------------------|
B|------------------------------------------------|------------------------------------------------|
G|----9--------9--------9--------9--------9-------|----9--------9--------9--------9--------9-------|
D|-------7--------7--------7--------7--------7----|-------7--------7--------7--------7--------7----|
A|-9--------9--------9--------9--------9--------9-|-8--------8--------8--------8--------8----------|
E|------------------------------------------------|------------------------------------------------|
           And I'll  pretend            that it's alright

e|------------------------------------------------|------------------------------------------------|
B|------------------------------------------------|------------------------------------------------|
G|----7--------7--------7--------7--------7-------|----6--------6--------6--------6--------6-------|
D|-------5--------5--------5--------5--------5----|-------5--------5--------5--------5--------5----|
A|-7--------7--------7--------7--------7----------|-7--------7--------7--------7--------7----------|
E|----------------------------------------------5-|------------------------------------------------|
            I  need  to know  if    you   hear   my, 
 
e|------------------------------------------------|------------------------------------------------|
B|------------------------------------------------|------------------------------------------------|
G|----9--------9--------9--------9--------9-------|----9--------9--------9--------9--------9-------|
D|-------7--------7--------7--------7--------7----|-------7--------7--------7--------7-------------|
A|-9--------9--------9--------9--------9--------9-|-8--------8--------8--------8--------8----10----|
E|------------------------------------------------|------------------------------------------------|
   pleas,                                           pleas

e|------------------------------------------------|------------------------------------------------|
B|------------------------------------------------|------------------------------------------------|
G|----7--------7--------7--------7--------7-------|----6--------6--------6--------6--------6-------|
D|-------5--------5--------5--------5--------5----|-------5--------5--------5--------5--------5----|
A|-7--------7--------7--------7--------7----------|-7--------7--------7--------7--------7----------|
E|----------------------------------------------5-|------------------------------------------------|
               Do   you wan - na    spend the   night, 

e|------------------------------------------------|------------------------------------------------|
B|------------------------------------------------|------------------------------------------------|
G|----9--------9--------9--------9--------9-------|----9--------9----------------------------------|
D|-------7--------7--------7--------7--------7----|-------7--------7-------------------------------|
A|-9--------9--------9--------9--------9--------9-|-8--------8--------8----------------------------|
E|------------------------------------------------|------------------------------------------------|
   please,                                          please?


[Chorus 2]

   +                                                +
e|------------------------------------------------|------------------------------------------------|
B|-8--8--------8--------8--------8----------------|-5--5--------5--------5--------5----------------|
G|-7--7--------7--------7--------7----------------|-6--6--------6--------6--------6----------------|
D|-5-----5--------5--------5--------5-------------|-5-----5--------5--------5--------5-------------|
A|-7--------7--------7--------7--------7----------|-7--------7--------7--------7--------7----------|
E|------------------------------------------------|------------------------------------------------|
   (oooohhhhhh...)         Why   don't you   tell         me
 
   +                                                +
e|------------------------------------------------|------------------------------------------------|
B|10-10-------10-------10-------10----------------|10-10-------10-------10-------10----------------|
G|-9--9--------9--------9--------9----------------|-9--9--------9--------9--------9----------------|
D|-7-----7--------7--------7--------7-------------|-7-----7--------7--------7--------7-------------|
A|-9--------9--------9--------9--------9----------|-8--------8--------8--------8--------8----------|
E|------------------------------------------------|------------------------------------------------|
                           what        you   want

   +                                                +
e|------------------------------------------------|------------------------------------------------|
B|-8--8--------8--------8--------8----------------|-5--5--------5--------5--------5----------------|
G|-7--7--------7--------7--------7----------------|-6--6--------6--------6--------6----------------|
D|-5-----5--------5--------5--------5-------------|-5-----5--------5--------5--------5-------------|
A|-7--------7--------7--------7--------7----------|-7--------7--------7--------7--------7----------|
E|------------------------------------------------|------------------------------------------------|
   (oooohhhhhh...)         Love  you   don't give         your   -   self         will

   +                                                +
e|------------------------------------------------|------------------------------------------------|
B|10-10-------10-------10-------10----------------|10-10-------10-------10-------10----------------|
G|-9--9--------9--------9--------9----------------|-9--9--------9--------9--------9----------------|
D|-7-----7--------7--------7--------7-------------|-7-----7--------7--------7--------7-------------|
A|-9--------9--------9--------9--------9----------|-8--------8--------8--------8--------8----------|
E|------------------------------------------------|------------------------------------------------|
                           al     -    ways  haunt


[Outro]

     +                                                +
e|------------------------------------------------|------------------------------------------------|
B|---8--------------------------------------------|------------------------------------------------|
G|---7--------------------------------------------|---9--------------------------------------------|
D|---5--------------------------------------------|---7--------------------------------------------|
A|---7--------------------------------------------|---8--------------------------------------------|
E|------------------------------------------------|------------------------------------------------|
     Pleas,                                           pleas,

     +                                                +
e|------------------------------------------------|------------------------------------------------|
B|---6--------------------------------------------|---8--------------------------------------------|
G|---5--------------------------------------------|---7--------------------------------------------|
D|---3--------------------------------------------|---5--------------------------------------------|
A|---5--------------------------------------------|---6--------------------------------------------|
E|------------------------------------------------|------------------------------------------------|
     pleas,                                           pleas

e|------------------------------------------------|------------------------------------------------|
B|------------------------------------------------|------------------------------------------------|
G|----7--------7--------7--------7--------7-------|----9--------9--------9--------9--------9-------|
D|-------5--------5--------5--------5--------5----|-------7--------7--------7--------7--------7----|
A|-7--------7--------7--------7--------7--------7-|-8--------8--------8--------8--------8--------8-|
E|------------------------------------------------|------------------------------------------------|
  (pleas...pleas...) pleas...                      (pleas...pleas...) pleas...  

e|------------------------------------------------|------------------------------------------------|
B|------------------------------------------------|------------------------------------------------|
G|----5--------5--------5--------5--------5-------|----7--------7--------7--------7--------7-------|
D|-------3--------3--------3--------3--------3----|-------5--------5--------5--------5--------5----|
A|-5--------5--------5--------5--------5--------5-|-6--------6--------6--------6--------6--------6-|
E|------------------------------------------------|------------------------------------------------|
  (pleas...pleas...) pleas...                      (pleas...pleas...) pleas...  

e|------------------------------------------------|------------------------------------------------|
B|------------------------------------------------|------------------------------------------------|
G|----7--------7--------7--------7--------7-------|----9--------9--------9--------9--------9-------|
D|-------5--------5--------5--------5--------5----|-------7--------7--------7--------7--------7----|
A|-7-----------------7--------7--------7--------7-|-8--------8-----------------8--------8--------8-|
E|----------7-------------------------------------|-------------------8----------------------------|
  (pleas...pleas...) pleas...                      (pleas...pleas...) pleas...  

e|------------------------------------------------|------------------------------------------------|
B|------------------------------------------------|------------------------------------------------|
G|----5--------5--------5--------5--------5-------|----7--------7--------7--------7--------7-------|
D|-------3--------3--------3--------3--------3----|-------5--------5--------5--------5--------5----|
A|-5-----------------5--------5--------5--------5-|-6--------6-----------------6--------6--------6-|
E|----------5-------------------------------------|-------------------6----------------------------|
  (pleas...pleas...) pleas...                      (pleas...pleas...) pleas...  

e|------------------------------------------------|------------------------------------------------|
B|------------------------------------------------|------------------------------------------------|
G|----7--------7--------7--------7--------7-------|----9--------9--------9--------9--------9-------|
D|-------5--------5--------5--------5--------5----|-------7--------7--------7--------7--------7----|
A|-7-----------------7--------7--------7--------7-|-8--------8-----------------8--------8--------8-|
E|----------7-------------------------------------|-------------------8----------------------------|
  (pleas...pleas...) pleas...                      (pleas...pleas...) pleas...  

e|------------------------------------------------|------------------------------------------------|
B|------------------------------------------------|------------------------------------------------|
G|----5--------5--------5--------5--------5-------|----7--------7--------7--------7--------7-------|
D|-------3--------3--------3--------3--------3----|-------5--------5--------5--------5--------5----|
A|-5-----------------5--------5--------5--------5-|-6--------6-----------------6--------6--------6-|
E|----------5-------------------------------------|-------------------6----------------------------|
  (pleas...pleas...) pleas...                      (pleas...pleas...) pleas...  

e|------------------------------------------------|------------------------------------------------|
B|------------------------------------------------|------------------------------------------------|
G|----7--------7--------7--------7--------7-------|----6--------6--------6--------6--------6-------|
D|-------5--------5--------5--------5--------5----|-------5--------5--------5--------5--------5----|
A|-7--------7--------7--------7--------7----------|-7--------7--------7--------7--------7----------|
E|----------------------------------------------5-|------------------------------------------------|

e|------------------------------------------------|------------------------------------------------|
B|------------------------------------------------|------------------------------------------------|
G|----9--------9--------9--------9--------9-------|----9--------9--------9--------9--------9-------|
D|-------7--------7--------7--------7--------7----|-------7--------7--------7--------7--------7----|
A|-9--------9--------9--------9--------9--------9-|-8--------8--------8--------8--------8----------|
E|------------------------------------------------|------------------------------------------------|

e|------------------------------------------------|------------------------------------------------|
B|------------------------------------------------|------------------------------------------------|
G|-----7-----------7-----------7-----------7------|-----6-----------6-----------6------------------|
D|---------5-----------5-----------5-----------5--|---------5-----------5-----------5--------------|
A|-7-----------7-----------7-----------7----------|-7-----------7-----------7-----------7----------|
E|------------------------------------------------|------------------------------------------------|
           So will  you    talk    in  mo - no   -  chrome,

e|------------------------------------------------|------------------------------------------------|
B|------------------------------------------------|------------------------------------------------|
G|-----9-----------9-----------9-----------9------|-----9-----------9-----------9---------------9--|
D|---------7-----------7-----------7-----------7--|---------7-----------7-----------7-------7------|
A|-9-----------9-----------9-----------9----------|-8-----------8-----------8-----------8----------|
E|------------------------------------------------|------------------------------------------------|
   please,                                          please?

                                                      +
e|------------------------------------------------|------------------------------------------------|
B|10--------------------------10------------------|--10--------------------------------------------|
G|-----9-----------9---------------9--------------|---9--------------------------------------------|
D|---------7-----------7-----------------7--------|---7--------------------------------------------|
A|-------------8-----------8-------------------8--|---9--------------------------------------------|
E|------------------------------------------------|------------------------------------------------|



**********************************************
|+    Pick the chord quickly (strum down pick)
**********************************************

            
            
Suggest correction
Creating personal tab
Creating personal tab
You can edit any tab online and save it as your Personal.

You can edit, replace or remove any tab part or add personal notes – all changes will be seen only by you.

Personal tabs can be accessed anytime from any device, even offline.
Learn more »
Give kudos to tab author, rate the tab!
1 2 3 4 5
comments
print report bad tab
guest
You may want to rate the tab now too:
select rating
Wanna post a correction for this tab? Suggest correction