Oops, an error
Loading. Please wait.

Call My Name tab

505 views 6 this week
no commentswrite comment
1 2 3 4 5
2 more votes to show rating
add to favorites
×
Save as Personal and add changes to this tab that will be seen only by you. Learn more ›
×
You can save this tab as Personal to edit and correct it or add notes. All changes will be seen only by you. Learn more »
launch autoscroll
font size
0
reset
how to read this tab
guitar tuner
edit
Autoscroll
slow
fast
+/-
esc
set tempo
stop
Author
Difficulty
About this tab version
First version of this song. Was this info helpful? Yes No
Performed by Mosquito Coast
Tabbed by Ander (first tab, probably mistakes)
Listen to the song to get the intro timing.

[Chords used]
    
    A      C#m       B      F#m*
e|--5-------4--------7-------9-----------------------------------------------|
B|--5-------5--------7-------10----------------------------------------------|
G|--6-------6--------8-------11----------------------------------------------|
D|--7-------6--------9-------11----------------------------------------------|
A|--7-------4--------9-------9-----------------------------------------------|
E|--5-------x--------7-------x-----------------------------------------------|




[Intro]
Guitar 1.
A C#m B x6

Guitar 2 
Play riff x2 after guitar 1. plays the chord progression twice.

[Riff]

e|---------------------2/4\2-------2---2---2-2-0-----------------------------|
B|-2---2---2-2-0--2/4-----------------------------2---0----------------------|
G|---------------------------------------------------------------------------|
D|---------------------------------------------------------------------------|
A|---------------------------------------------------------------------------|
E|---------------------------------------------------------------------------|

 


[Verse]

Guitar 1.
A                    C#m    B
Baby, if you tell me your name
A                 C#m  B
I can say a thing or two
A                   C#m   B
You can call me night and day
A                  C#m  B
Baby, it's just me and you.

A                      C#m  B
We don't have to move too fast
A                      C#m     B
Breakfast, lunch, then dinner last
A                       C#m    B
Coffee, crumbles, and crumpets too
A                   C#m  B
Babe, I got a world for you



[Chorus]
A               C#m  B
Baby if you call my name, oh oh
A               C#m  B
I can be the one who says
A               C#m  B
Baby if you call my name, oh oh
A               C#m    B
We can dance the night away!

[Verse]

Guitar 2. plays riff 2x, then;

A              C#m     B
Travel far across the globe
A                     C#m     B
A young man in an old man's clothes
A                      C#m   B
Moving to a beat that's too slow
A                   C#m  B
A feeling down and deep below

[Chorus](x2)

A             C#m   B
Baby if you call my name, oh oh
A             C#m   B
I can be the one who says
A            C#m    B
Baby if you call my name, oh oh
A             C#m   B
We can dance the night away!

[Bridge]

F#m* B x4

[Chorus](x2)

A             C#m   B
Baby if you call my name, oh oh
A             C#m   B
I can be the one who says
A            C#m    B
Baby if you call my name, oh oh
A             C#m   B
We can dance the night away!


************************************

| x  Dead note
| /  Slide up
| \  Slide down

************************************

            
            
Suggest correction
Creating personal tab
Creating personal tab
You can edit any tab online and save it as your Personal.

You can edit, replace or remove any tab part or add personal notes – all changes will be seen only by you.

Personal tabs can be accessed anytime from any device, even offline.
Learn more »
Give kudos to tab author, rate the tab!
1 2 3 4 5
comments
print report bad tab
guest
You may want to rate the tab now too:
select rating
Wanna post a correction for this tab? Suggest correction