Oops, an error
Loading. Please wait.

To The Wild tab

88 views 3 this week
no commentswrite comment
1 2 3 4 5
3 more votes to show rating
add to favorites
×
Save as Personal and add changes to this tab that will be seen only by you. Learn more ›
×
You can save this tab as Personal to edit and correct it or add notes. All changes will be seen only by you. Learn more »
launch autoscroll
font size
0
reset
how to read this tab
guitar tuner
edit
Autoscroll
slow
fast
+/-
esc
set tempo
stop
Author
Difficulty
About this tab version
This tab is based off the studio version of the song. It includes both guitar parts, and the intro keyboard bit tabbed for guitar. This is the whole song, transcribed by ear. Was this info helpful? Yes No
Tabbed by: Owen Shepherd
Email: 414owen < at > gmail.com
Tuning: Standard

   [Intro]             {Keyboard bit for guitar}
e||-7-------7-------7-------7------|-11------11------9-------9------|
B||-----7-------7-------7-------7--|-----12------12------10------10-|
G||--------------------------------|--------------------------------|
D||--------------------------------|--------------------------------|
A||--------------------------------|--------------------------------|
E||--------------------------------|--------------------------------|

e |-7-------7-------7-------7------|-11------11------9-------9------||
B |-----9-------9-------9-------9--|-----12------12------10------10-||
G |--------------------------------|--------------------------------|| x2
D |--------------------------------|--------------------------------||
A |--------------------------------|--------------------------------||
E |--------------------------------|--------------------------------||


                              {Guitar 1}
e||--------------------------------|--------------------------------|
B||--------------------------------|--------------------------------|
G||--------------------------------|--------------------------------|
D||--------------------------------|--------------------------------|
A||--------------------------------|-6---6---6---6------------------|
E||-7---7---7---7---7---7---7---7--|-----------------5---5---5---5--|

e |--------------------------------|--------------------------------||
B |--------------------------------|--------------------------------||
G |--------------------------------|--------------------------------|| x2
D |--------------------------------|--------------------------------||
A |--------------------------------|-6---6---6---6------------------||
E |-0---0---0---0---0---0---0---0--|-----------------5---5---5---5--||


                              {Guitar 2}
e||--------------------------------|--------------------------------||
B||--------------------------------|--------------------------------||
G||--------------------------------|--------------------------------|| x3
D||--------------------------------|--------------------------------||
A||--------------------------------|--------------------------------||
E||--------------------------------|--------------------------------||

e |--------------------------------|----------------------------11b-|
B |--------------------------------|--------------------------------|
G |--------------------------------|--------------------------------|
D |--------------------------------|--------------------------------|
A |--------------------------------|--------------------------------|
E |--------------------------------|--------------------------------|



   [Verse 1]                  {Guitar 1}
                                     Take,           all     your... 
e||--------------------------------|--------------------------------||
B||--------------------------------|--------------------------------||
G||--------------------------------|--------------------------------|| x4
D||--------------------------------|--------------------------------||
A||--------------------------------|--------------------------------||
E||--------------------------------|--------------------------------||

e||--------------------------------|--------------------------------|
B||--------------------------------|--------------------------------|
G||--------------------------------|--------------------------------|
D||--------------------------------|--------------------------------|
A||--------------------------------|-6---6---6---6------------------|
E||-7---7---7---7---7---7---7---7--|-----------------5---5---5---5--|

e |--------------------------------|--------------------------------||
B |--------------------------------|--------------------------------||
G |--------------------------------|--------------------------------|| x2
D |--------------------------------|--------------------------------||
A |--------------------------------|-6---6---6---6------------------||
E |-0---0---0---0---0---0---0---0--|-----------------5---5---5---5--||


                              {Guitar 2}
e |-7~-----------------------------|--------------------------------|
B |--------------------------------|--------------------------------|
G |--------------------------------|--------------------------------|
D |--------------------------------|--------------------------------|
A |--------------------------------|--------------------------------|
E |--------------------------------|--------------------------------|

e |--------------------------------|--------------------------------|
B |--------------------------------|--------------------------------|
G |--------------------------------|--------------------------------|
D |--------------------------------|--------------------------------|
A |--------------------------------|--------------------------------|
E |--------------------------------|--------------------------------|

e |--------------------------------|--------------------------------|
B |--------------------------------|--------------------------------|
G |--------------------------------|--------------------------------|
D |--------------------------------|--------------------------------|
A |--------------------------------|--------------------------------|
E |--------------------------------|--------------------------------|

e |--------------------------------|--------------------------------|
B |--------------------------------|--------------------------------|
G |--------------------------------|-7--------------6---------------|
D |--------------------------------|--------------------------------|
A |--------------------------------|--------------------------------|
E |--------------------------------|--------------------------------|



   [Bridge 1]          {Keyboard bit for guitar}
e||-7-------7-------7-------7------|-11------11------9-------9------|
B||-----7-------7-------7-------7--|-----12------12------10------10-|
G||--------------------------------|--------------------------------|
D||--------------------------------|--------------------------------|
A||--------------------------------|--------------------------------|
E||--------------------------------|--------------------------------|

e |-7-------7-------7-------7------|-11------11------9-------9------||
B |-----9-------9-------9-------9--|-----12------12------10------10-||
G |--------------------------------|--------------------------------|| x2
D |--------------------------------|--------------------------------||
A |--------------------------------|--------------------------------||
E |--------------------------------|--------------------------------||


                              {Guitar 1}
e||--------------------------------|--------------------------------|
B||--------------------------------|--------------------------------|
G||--------------------------------|--------------------------------|
D||--------------------------------|--------------------------------|
A||--------------------------------|-6---6---6---6------------------|
E||-7---7---7---7---7---7---7---7--|-----------------5---5---5---5--|

e |--------------------------------|--------------------------------||
B |--------------------------------|--------------------------------||
G |--------------------------------|--------------------------------|| x2
D |--------------------------------|--------------------------------||
A |--------------------------------|-6---6---6---6------------------||
E |-0---0---0---0---0---0---0---0--|-----------------5---5---5---5--||


                              {Guitar 2}
e |--------------------------------|--------------------------------|
B |--------------------------------|--------------------------------|
G |-4------------------------------|-----7-------7---6-------6b7b6--|
D |-4------------------------------|--------------------------------|
A |-2------------------------------|--------------------------------|
E |--------------------------------|--------------------------------|

e |--------------------------------|--------------------------------|
B |--------------------------------|--------------------------------|
G |-4-----------4------------------|-----7---7---7---6b7-----7b6----|
D |-------------4------------------|--------------------------------|
A |-------------2------------------|--------------------------------|
E |--------------------------------|--------------------------------|

e |--------------------------------|--------------------------------|
B |--------------------------------|--------------------------------|
G |-4------------------------------|--------------------------------|
D |--------------------------------|--------------------------------|
A |--------------------------------|--------------------------------|
E |--------------------------------|--------------------------------|

e |--------------------------------|--------------------------------|
B |--------------------------------|--------------------------------|
G |-------------4------------------|-----7-----------6b------6b-----|
D |-------------4------------------|--------------------------------|
A |-------------2------------------|--------------------------------|
E |--------------------------------|--------------------------------|



   [Verse 2]                  {Guitar 1}
                                   |Take,            that old 
e||--------------------------------|--------------------------------|
B||--------------------------------|--------------------------------|
G||--------------------------------|--------------------------------|
D||--------------------------------|--------------------------------|
A||--------------------------------|-6---6---6---6------------------|
E||-7---7---7---7---7---7---7---7--|-----------------5---5---5---5--|

e |--------------------------------|--------------------------------||
B |--------------------------------|--------------------------------||
G |--------------------------------|--------------------------------|| x4
D |--------------------------------|--------------------------------||
A |--------------------------------|-6---6---6---6------------------||
E |-0---0---0---0---0---0---0---0--|-----------------5---5---5---5--||


                               {Guitar 2}
e |-7~-----------------------------|--------------------------------|
B |--------------------------------|--------------------------------|
G |--------------------------------|--------------------------------|
D |--------------------------------|--------------------------------|
A |--------------------------------|--------------------------------|
E |--------------------------------|--------------------------------|

e |--------------------------------|--------------------------------|
B |--------------------------------|--------------------------------|
G |--------------------------------|--------------------------------|
D |--------------------------------|--------------------------------|
A |--------------------------------|--------------------------------|
E |--------------------------------|--------------------------------|

e |-------------x-x-x-x------------|--------------------------------|
B |-------------x-x-x-x------------|--------------------------------|
G |-------------x-x-x-x------------|--------------------------------|
D |-------------x-x-x-x------------|--------------------------------|
A |-------------x-x-x-x------------|--------------------------------|
E |-------------x-x-x-x------------|--------------------------------|

e |---------------------------x-x-x|(x)-----------------------------|
B |---------------------------x-x-x|(x)-----------------------------|
G |---------------------------x-x-x|(x)-----------------------------|
D |---------------------------x-x-x|(x)-----------------------------|
A |---------------------------x-x-x|(x)-----------------------------|
E |-0-------------------------x-x-x|(x)-----------------------------|

e |--------------------------------|--------------------------------|
B |--------------------------------|--------------------------------|
G |-------------4------------------|--------------------------------|
D |--------------------------------|--------------------------------|
A |--------------------------------|--------------------------------|
E |-7------------------------------|--------------------------------|

e |--------------------------------|--------------------------------|
B |--------------------------------|--------------------------------|
G |-4------------------------------|--------------------------------|
D |-4------------------------------|--------------------------------|
A |-2------------------------------|--------------------------------|
E |--------------------------------|--------------------------------|

e |--------------------------------|--------------------------------|
B |--------------------------------|--------------------------------|
G |--------------------------------|--------------------------------|
D |--------------------------------|--------------------------------|
A |--------------------------------|--------------------------------|
E |--------------------------------|--------------------------------|

e |--------------------------------|--------------------------------|
B |--------------------------------|--------------------------------|
G |--------------------------------|-8-------8-------6-------7---6--|
D |-2------------------------------|--------------------------------|
A |-2------------------------------|--------------------------------|
E |-0------------------------------|--------------------------------|



   [Bridge 2]            {Keyboard bit for guitar}
e||-7-------7-------7-------7------|-11------11------9-------9------|
B||-----7-------7-------7-------7--|-----12------12------10------10-|
G||--------------------------------|--------------------------------|
D||--------------------------------|--------------------------------|
A||--------------------------------|--------------------------------|
E||--------------------------------|--------------------------------|

e |-7-------7-------7-------7------|-11------11------9-------9------||
B |-----9-------9-------9-------9--|-----12------12------10------10-||
G |--------------------------------|--------------------------------|| x3
D |--------------------------------|--------------------------------||
A |--------------------------------|--------------------------------||
E |--------------------------------|--------------------------------||


                              {Guitar 1}
e||--------------------------------|--------------------------------|
B||--------------------------------|--------------------------------|
G||--------------------------------|--------------------------------|
D||--------------------------------|--------------------------------|
A||--------------------------------|-6---6---6---6------------------|
E||-7---7---7---7---7---7---7---7--|-----------------5---5---5---5--|

e |--------------------------------|--------------------------------||
B |--------------------------------|--------------------------------||
G |--------------------------------|--------------------------------|| x3
D |--------------------------------|--------------------------------||
A |--------------------------------|-6---6---6---6------------------||
E |-0---0---0---0---0---0---0---0--|-----------------5---5---5---5--||

                              {Guitar 2}
e |--------------------------------|--------------------------------|
B |--------------------------------|--------------------------------|
G |-4-------4-------4--------------|---7b8-----------6-------6b7b6--|
D |---------4-------4--------------|--------------------------------|
A |---------2-------2--------------|--------------------------------|
E |--------------------------------|--------------------------------|

e |--------------------------------|--------------------------------|
B |--------------------------------|--------------------------------|
G |-4-----------4------------------|---7b8---8---8---6---6---6b7b6--|
D |-------------4------------------|--------------------------------|
A |-------------2------------------|--------------------------------|
E |--------------------------------|--------------------------------|

e |--------------------------------|--------------------------------|
B |--------------------------------|--------------------------------|
G |-4------------------------------|-----4---4---4---6--6b7b64------|
D |--------------------------------|--------------------------------|
A |--------------------------------|--------------------------------|
E |--------------------------------|--------------------------------|

e |--------------------------------|--------------------------------|
B |--------------------------------|--------------------------------|
G |-------------4------------------|---7b8---8---8---6---6---6b7b6--|
D |-------------4------------------|--------------------------------|
A |-------------2------------------|--------------------------------|
E |--------------------------------|--------------------------------|

e |---------------------------x-x-x|(x)-----------------------------|
B |---------------------------x-x-x|(x)-----------------------------|
G |-4-------------------------x-x-x|(x)-----------------------------|
D |---------------------------x-x-x|(x)-----------------------------|
A |---------------------------x-x-x|(x)-----------------------------|
E |---------------------------x-x-x|(x)-----------------------------|

e |--------------------------------|--------------------------------|
B |--------------------------------|--------------------------------|
G |-------------4------------------|---7b8---8---8---6---6---6b7b6--|
D |-------------4------------------|--------------------------------|
A |-------------2------------------|--------------------------------|
E |-0------------------------------|--------------------------------|



   [Outro]             {Keyboard bit for guitar}
e||-7-------7-------7-------7------|-11------11------9-------9------|
B||-----7-------7-------7-------7--|-----12------12------10------10-|
G||--------------------------------|--------------------------------|
D||--------------------------------|--------------------------------|
A||--------------------------------|--------------------------------|
E||--------------------------------|--------------------------------|

e |-7-------7-------7-------7------|-11------11------9-------9------||
B |-----9-------9-------9-------9--|-----12------12------10------10-||
G |--------------------------------|--------------------------------|| x3
D |--------------------------------|--------------------------------||
A |--------------------------------|--------------------------------||
E |--------------------------------|--------------------------------||


                              {Guitar 1}
e||--------------------------------|--------------------------------|
B||--------------------------------|--------------------------------|
G||--------------------------------|--------------------------------|
D||--------------------------------|--------------------------------|
A||--------------------------------|-6---6---6---6------------------|
E||-7---7---7---7---7---7---7---7--|-----------------5---5---5---5--|

e |--------------------------------|--------------------------------||
B |--------------------------------|--------------------------------||
G |--------------------------------|--------------------------------|| x2
D |--------------------------------|--------------------------------||
A |--------------------------------|-6---6---6---6------------------||
E |-0---0---0---0---0---0---0---0--|-----------------5---5---5---5--||

e |--------------------------------|--------------------------------|
B |--------------------------------|--------------------------------|
G |--------------------------------|--------------------------------|
D |--------------------------------|--------------------------------|
A |--------------------------------|--------------------------------|
E |--------------------------------|--------------------------------|

e |--------------------------------|--------------------------------|
B |--------------------------------|--------------------------------|
G |--------------------------------|--------------------------------|
D |--------------------------------|--------------------------------|
A |--------------------------------|--------------------------------|
E |--------------------------------|--------------------------------|

                              {Guitar 2}
e |--------------------------------|--------------------------------|
B |--------------------------------|--------------------------------|
G |-4------------------------------|--------------------------------|
D |--------------------------------|--------------------------------|
A |--------------------------------|--------------------------------|
E |--------------------------------|--------------------------------|

e |--------------------------------|--------------------------------|
B |--------------------------------|--------------------------------|
G |--------------------------------|--------------------------------|
D |--------------------------------|--------------------------------|
A |--------------------------------|--------------------------------|
E |--------------------------------|--------------------------------|

e |--------------------------------|--------------------------------|
B |--------------------------------|--------------------------------|
G |---------7b6--------------------|-----------------------------7p-|
D |--------------------------------|--------------------------------|
A |--------------------------------|--------------------------------|
E |--------------------------------|--------------------------------|

e |--------------------------------|---------------------x---x---x--|
B |--------------------------------|---------------------x---x---x--|
G |-6p4----------------------------|---------------------x---x---x--|
D |--------------------------------|---------------------x---x---x--|
A |--------------------------------|---------------------x---x---x--|
E |--------------------------------|---------------------x---x---x--|

e |--------------------------------|--------------------------------|
B |--------------------------------|--------------------------------|
G |--------------------------------|--------------------------------|
D |--------------------------------|--------------------------------|
A |--------------------------------|--------------------------------|
E |--------------------------------|--------------------------------|

e |--------------------------------|--------------------------------|
B |--------------------------------|--------------------------------|
G |--------------------------------|--------------------------------|
D |--------------------------------|--------------------------------|
A |--------------------------------|--------------------------------|
E |--------------------------------|--------------------------------|

*********************************** 
| b Bend
| x Dead note
| p Pull-off
| ~ Vibrato
*********************************** 

            
            
Suggest correction
Creating personal tab
Creating personal tab
You can edit any tab online and save it as your Personal.

You can edit, replace or remove any tab part or add personal notes – all changes will be seen only by you.

Personal tabs can be accessed anytime from any device, even offline.
Learn more »
Give kudos to tab author, rate the tab!
1 2 3 4 5
comments
print report bad tab
guest
You may want to rate the tab now too:
select rating
Wanna post a correction for this tab? Suggest correction