Oops, an error
Loading. Please wait.

Seed bass

303 views 1 this week
no commentswrite comment
1 2 3 4 5
3 more votes to show rating
add to favorites
×
Save as Personal and add changes to this tab that will be seen only by you. Learn more ›
×
You can save this tab as Personal to edit and correct it or add notes. All changes will be seen only by you. Learn more »
launch autoscroll
font size
0
reset
guitar tuner
edit
Autoscroll
slow
fast
+/-
esc
set tempo
stop
Author
Difficulty
The Seed by Mother Tongue from their first album.

Main riff:

G|-------------2~-----------| (Variation)
D|---4h5-4------------------|
A|-2-------5s4----------0-1-|
E|----------------3-2-3-----|

G|-------------2~-----------| (Main)
D|---4h5-4------------------|
A|-2-------5s4--------------|
E|----------------3-2-------|


Second riff

G|-------2-|        G|-------0-|
D|---------|        D|---------|
A|-2-2-2---| -->    A|-0-0-0---|
E|---------|        E|---------|


I think that´s it. The rythm in the second riff is a bit strange but just try out on the 
I wrote down. Have Fun
Funk´s Not Dead!

            
            
Suggest correction
Creating personal tab
Creating personal tab
You can edit any tab online and save it as your Personal.

You can edit, replace or remove any tab part or add personal notes – all changes will be seen only by you.

Personal tabs can be accessed anytime from any device, even offline.
Learn more »
Give kudos to tab author, rate the tab!
1 2 3 4 5
comments
print report bad tab
guest
You may want to rate the tab now too:
select rating
Wanna post a correction for this tab? Suggest correction