Oops, an error
Loading. Please wait.

Everything Is Alright tab

version 5
version 5

Whole song

Interactive

1,223 views 1 this week
1 commentread comment
1 2 3 4 5
x 3
add to favorites
×
Save as Personal and add changes to this tab that will be seen only by you. Learn more ›
×
You can save this tab as Personal to edit and correct it or add notes. All changes will be seen only by you. Learn more »
launch autoscroll
font size
0
reset
how to read this tab
guitar tuner
edit
Autoscroll
slow
fast
+/-
esc
set tempo
stop
Author
Unregistered
[Intro]

(0:06 - 0:17) Guitar 2 
e|----------------------------------| 
B|----------------------------------|
G|--8-------5-----------------------|
D|--8-(x6)--5-(x8)--3-------6-------|
A|--6-------3-------3-(x6)--6-(x6)--|
E|------------------1-------4-------|(x2)

(0:18 - 0:28) Guitar 2
e|----------------------------------|
B|----------------------------------|
G|--8---------------5---------------|
D|--8-(x6)--6-------5-(x6)--6-------|
A|--6-------6-(x6)--3-------6-(x6)--|
E|----------4---------------4-------|(x2)

(0:07 - 0:28) Moog (Transposed for Guitar 1)
e|--3---3-----3-4-6-3------3---3-----3-4-3-1-1--|
B|---4---4---4-------3s4----4---4---4---------4-|
G|----------------------------------------------|
D|----------------------------------------------|
A|----------------------------------------------|
E|----------------------------------------------|(x2)


[Verse]

(0:29 - 0:40) Guitar 1
e|------------------------| 
B|------------------------|
G|--8~----5~--------------|
D|--8~----3~----3~----6~--|
A|--6~----3~----3~----6~--|
E|--------------1~----4~--|(You Can Use The Whammy Bar Here)


[Pre-Chorus]

(0:41 - 0:53) Guitar 2
e|--------------------------------------| 
B|--------------------------------------|
G|--8--------5--------------------------|
D|--8-(x16)--5-(x16)--3--------6--------|
A|--6--------3--------3-(x16)--6-(x16)--|
E|--------------------1--------4--------|(Palm-muted)


[Chorus]

(0:54 - 1:04) Moog (Transposed for Guitar 1)
e|--3---3-----3-4-6-3------3---3-----3-4-3-1-1--| 
B|---4---4---4-------3s4----4---4---4---------4-|
G|----------------------------------------------|
D|----------------------------------------------|
A|----------------------------------------------|
E|----------------------------------------------|(x2)


[Chorus]

(0:54 - 1:04) Guitar 2
e|----------------------------------| 
B|----------------------------------|
G|--8---------------5---------------|
D|--8-(x6)--6-------5-(x6)--6-------|
A|--6-------6-(x6)--3-------6-(x6)--|
E|----------4---------------4-------|(x2)


[Verse]

(1:05 - 1:17)
No Guitar


[Pre-Chorus]

(1:18 - 1:29) Guitar 2
e|--------------------------------------| 
B|--------------------------------------|
G|--8--------5--------------------------|
D|--8-(x16)--5-(x16)--3--------6--------|
A|--6--------3--------3-(x16)--6-(x16)--|
E|--------------------1--------4--------|(Palm-muted)

(1:23) Guitar 1
e|-------------------------------| 
B|-------------------------------|
G|------5--5---------------------|
D|------5--5-(slide down)--------|
A|------3--3---------------------|
E|-------------------------------|


[Chorus]

(1:30 - 1:41) Moog (Transposed for Guitar 1)
e|--3---3-----3-4-6-3------3---3-----3-4-3-1-1--|
B|---4---4---4-------3s4----4---4---4---------4-|
G|----------------------------------------------|
D|----------------------------------------------|
A|----------------------------------------------|
E|----------------------------------------------|(x2)

(1:30 - 1:41) Guitar 2
e|----------------------------------| 
B|----------------------------------|
G|--8---------------5---------------|
D|--8-(x6)--6-------5-(x6)--6-------|
A|--6-------6-(x6)--3-------6-(x6)--|
E|----------4---------------4-------|(x2)


[Bridge]

(1:41-2:05) Guitar 2
e|--------------------------------------------| 
B|--------------------------------------------|
G|--7--5--8----7--5--8(~)---------------------|
D|--7--5--8----7--5--8(~)(only on last time)--|
A|--5--3--6----5--3--6(~)---------------------|
E|--------------------------------------------|(x4)


[Bridge]

(1:55) (1:59) (2:01) Guitar 1
e|------------------------------| 
B|----------------3h4-----------|
G|------------3h5---------------|
D|------------------------------|
A|------------------------------|
E|------------------------------|


[Bridge]

(2:06-2:12) Guitar 1
e|------------------------------| 
B|------------------------------|
G|----------5~------------------|
D|----------5~----3~------------|
A|----------3~----3~------------|
E|----------------1~------------|


[Bridge]

(2:13-2:16) Guitar 1 and 2
e|------------------------------| 
B|------------------------------|
G|------------------------------|
D|--------6---------6-----------|
A|--------6-(x16)---6-----------|
E|--------4---------4-----------|


[Pre-Chorus]

(2:17-2:40) Guitar 1 and 2 
e|--------------------------------------| 
B|--------------------------------------|
G|--8--------5--------------------------|
D|--8-(x16)--5-(x16)--3--------6--------|
A|--6--------3--------3-(x16)--6-(x16)--|
E|--------------------1--------4--------|(x2)

There are some little moog notes floating in the background and are just barely
audible.  I can't really decipher them.


[Chorus]

(2:41-3:03) Moog (Transposed for Guitar 1)
e|--3---3-----3-4-6-3------3---3-----3-4-3-1-1--| 
B|---4---4---4-------3s4----4---4---4---------4-|
G|----------------------------------------------|
D|----------------------------------------------|
A|----------------------------------------------|
E|----------------------------------------------|(x2)


[Chorus]

(2:41-3:03) Guitar 2
e|----------------------------------| 
B|----------------------------------|
G|--8---------------5---------------|
D|--8-(x6)--6-------5-(x6)--6-------|
A|--6-------6-(x6)--3-------6-(x6)--|
E|----------4---------------4-------|(x4)


[Ending]

(3:04-3:25) Guitar 2
e|---------------------------------| 
B|---------------------------------|
G|--7--5--3(~)---------------------|
D|--7--5--3(~)(only on last time)--|
A|--5--3--1(~)---------------------|
E|---------------------------------|(x4)



************************************

| ~  Vibrato
| h  Hammer-on
| s  slide

************************************

            
            
Suggest correction
Creating personal tab
Creating personal tab
You can edit any tab online and save it as your Personal.

You can edit, replace or remove any tab part or add personal notes – all changes will be seen only by you.

Personal tabs can be accessed anytime from any device, even offline.
Learn more »
Give kudos to tab author, rate the tab!
1 2 3 4 5
comments
print report bad tab
1 comment total.
+1 reply
wetyuk32 159 Dec 29, 2014 08:28 AM

Clearly wrong. These are not chords at all; they are tabs. So I am unsure why they are listed as ukulele chords.

guest
Wanna post a correction for this tab? Suggest correction