Oops, an error
Loading. Please wait.

Skin And Bones bass

82 views 1 this week
no commentswrite comment
1 2 3 4 5
2 more votes to show rating
add to favorites
×
Save as Personal and add changes to this tab that will be seen only by you. Learn more ›
×
You can save this tab as Personal to edit and correct it or add notes. All changes will be seen only by you. Learn more »
launch autoscroll
font size
0
reset
guitar tuner
edit
Autoscroll
slow
fast
+/-
esc
set tempo
stop
Motion City Soundtrack - Skin and Bones

Tabbed By : Ash (XxThreeCheersxX)
e-mail:  burdickash@gmail.com 

Tuning: Half Step Down

Verse (come in at "Someone else's thoughts"; play quietly and grow louder)
Gb|---------------------------------|
Db|---------------------------------|
Ab|---------------------------------|
Eb|-0-0-0-0-0-0-0-0-0-0-0-0-0-0-0-0-|

Chorus
Gb|-----------------------------------------------------------------|
Db|-----------------------------------------------------------------|
Ab|-2-2-2-2-2-2-2-2-------------------------------------------------| x 2
Eb|-----------------4-4-4-4-4-4-4-4-0-0-0-0-0-0-0-0-0-0-0-0-0-0-0-0-|

Verse II
Gb|-----------------------------------------------------------------|
Db|-------------------------------------------------2-2-2-2-2-2-2-2-|
Ab|-2-2-2-2-2-2-2-2-2-2-2-2-2-2-2-2-4-4-4-4-4-4-4-4-----------------|
Eb|-----------------------------------------------------------------|
                                                                            x 2
Gb|-----------------------------------------------------------------|
Db|-----------------------------------------------------------------|
Ab|-2-2-2-2-2-2-2-2-2-2-2-2-2-2-2-2-4-4-4-4-4-4-4-4-----------------|
Eb|-------------------------------------------------0-0-0-0-0-0-0-0-|

Gb|-----------------------------------------------------------------|
Db|-------------------------------------------------2-2-2-2-2-2-2-2-|
Ab|-2-2-2-2-2-2-2-2-2-2-2-2-2-2-2-2-4-4-4-4-4-4-4-4-----------------|
Eb|-----------------------------------------------------------------|
                                                                            
Gb|-----------------------------------------------------------------|
Db|-----------------------------------------------------------------|
Ab|-2-2-2-2-2-2-2-2-2-2-2-2-2-2-2-2-4-4-4-4-4-4-4-4-----------------|
Eb|-------------------------------------------------0~--------------|

Chorus x 2

Bridge (come in at "Just skin and bones")
Gb|------------------------------------------------------------------------|
Db|------------------------------------------------------------------------|
Ab|-4~-----------------------------2~--------4~----------------------------|
Eb|-----------4~---------5~----------------------------4~--------5~--------|

Gb|------------------------------------------|
Db|------------------------------------------|
Ab|-2~--------4~-----------------------------| x 2
Eb|----------------------4~--------5~--------|

Chorus x 2

Outro
Gb|-----------------------------------------------------------------|
Db|-----------------------------------------------------------------|
Ab|-2-2-2-2-2-2-2-2-------------------------------------------------| 
Eb|-----------------4-4-4-4-4-4-4-4-0-0-0-0-0-0-0-0-0-0-0-0-0-0-0-0-|

Gb|--------------------------------------------|
Db|--------------------------------------------|
Ab|-2-2-2-2-2-2-2-2----------------------------|
Eb|-----------------4-4-4-4-4-4-4-4-0~---------|

Happy playing!

| /  slide up
| \  slide down
| h  hammer-on
| p  pull-off
| ~  vibrato
| +  harmonic
| x  Mute note

            
            
Suggest correction
Creating personal tab
Creating personal tab
You can edit any tab online and save it as your Personal.

You can edit, replace or remove any tab part or add personal notes – all changes will be seen only by you.

Personal tabs can be accessed anytime from any device, even offline.
Learn more »
Give kudos to tab author, rate the tab!
1 2 3 4 5
comments
print report bad tab
guest
You may want to rate the tab now too:
select rating
Wanna post a correction for this tab? Suggest correction