Oops, an error
Loading. Please wait.

Time Turned Fragile tab

11,293 views 1 this week
5 commentsread comments
1 2 3 4 5
x 7
add to favorites
×
Save as Personal and add changes to this tab that will be seen only by you. Learn more ›
×
You can save this tab as Personal to edit and correct it or add notes. All changes will be seen only by you. Learn more »
launch autoscroll
font size
0
reset
how to read this tab
guitar tuner
edit
Autoscroll
slow
fast
+/-
esc
set tempo
stop
Author
-----------------------------------------------------------------------------
			 -MOTION CITY SOUNDTRACK-
			   "Time Turned Fragile"
-----------------------------------------------------------------------------
Tabbed by: Jimmy "Tantalizing Beast" Gonzalez
Email: dtex9002@yahoo.com
Tuning: Standard (EADGBe)

This is my first tab, and I think this is pretty much completely correct. Emphasis
on the "I Think" part.  Hey, if anyone finds an error or something
that would clarify the tab, just e-mail me.  I'll appreciate any feedback

Since I have no moog, I tabbed out the song for three guitars.  They are numbered
arbitrarily, but no parts coincide in an impossible-to-execute fashion.


Intro (0:00-0:10) - Moog (Transposed for Guitar 1)
e|-------------------------------------------------| (x4)
B|--6-4-6-4--2-4-6-4-6-8-6-4--(6-4)----------------|
G|----------------------------(only on last time)--|
D|-------------------------------------------------|
A|-------------------------------------------------|
E|-------------------------------------------------|

Intro (0:00-0:10) - Guitar 2 
e|-------------------------------------------------| (x4)
B|-------------------------------------------------|
G|--8-8-8-8--5-5-5--7-7-7--(8)-(only on last time)-|
D|--8-8-8-8--5-5-5--7-7-7--(8)---------------------|
A|--6-6-6-6--3-3-3--5-5-5--(6)---------------------|
E|-------------------------------------------------|





Verse (0:10-0:20) - Guitar 2
e|----------------------------------------| (x2)
B|----------------------------------------|
G|--8-8---------5-5---7-------------------|
D|--8-8---6-6---5-5---7(x4)-6-------------|
A|--6-6---6-6---3-3---5-----6(x4)---------|
E|--------4-4---------------4-------------|

Transition (0:20-0:31) - Guitar 1
e|---------------------------| (x4)
B|-----------4--6-4----------|
G|-------------3-------------|
D|---------------------------|
A|---------------------------|
E|---------------------------|

Transition (0:20-0:31) - Guitar 2
e|-------------------|-----------------| (x2)
B|-------------------|-----------------|
G|-------------------|------------3-3--|
D|--1/5---3h5-3-1-1--|-1/5--3h5-3------|
A|-------------------|-----------------|
E|-------------------|-----------------|





Prechorus (0:31-0:41) - Guitar 1 (Played softly or palm muted)
e|---------------------------| (x4)
B|---------------------------|
G|---------5-----------------|
D|--8------5(x4)-6-----------|
A|--8(x8)--3-----6(x4)-------|
E|--6------------4-----------|





Chorus (0:41-0:51) - Moog (Transposed for Guitar 1)
e|-------------------------------------------------| (x4)
B|--6-4-6-4--2-4-6-4-6-8-6-4--(6-4)----------------|
G|----------------------------(only on last time)--|
D|-------------------------------------------------|
A|-------------------------------------------------|
E|-------------------------------------------------|


Chorus (0:41-0:51) - Guitar 2
e|--------------------------| (x4)
B|--------------------------|
G|--8-8-8-8--5-5-5--7-7-7---|
D|--8-8-8-8--5-5-5--7-7-7---|
A|--6-6-6-6--3-3-3--5-5-5---|
E|--------------------------|





Verse (0:51-1:01) - Guitar 2
e|----------------------------------------| (x2)
B|----------------------------------------|
G|--8-8---------5-5---7-------------------|
D|--8-8---6-6---5-5---7(x4)-6-------------|
A|--6-6---6-6---3-3---5-----6(x4)---------|
E|--------4-4---------------4-------------|





Prechorus (1:02-1:12) - Guitar 1 (Played softly or palm muted)
e|---------------------------| (x4)
B|---------------------------|
G|---------5-----------------|
D|--8------5(x4)-6-----------|
A|--8(x8)--3-----6(x4)-------|
E|--6------------4-----------|

(1:12-1:14) (1:17-1:29) (1:22-1:24) - Guitar 2 (Played loudly)
e|----------------------------------------| (x2 each time)
B|----------------------------------------|
G|----------------------------------------|
D|----------------3-----6-6---------------|
A|----------------3(x4)-6-6---------------|
E|----------------1-----4-4---------------|

(1:15-1:17) (1:20-1:22) (1:25-1:27) - Guitar 2 
e|----------------------------------------| 
B|----------------------------------------|
G|-----------5------6---------------------|
D|-----------5-(x8)-6-(x8)----------------|
A|-----------3------4---------------------|
E|----------------------------------------|

(1:15-1:17) (1:20-1:22) (1:25-1:27) - Moog (Transposed for Guitar 1)
e|--3-------1-3-1-----| 
B|----4-1-4-------4---|
G|--------------------|
D|--------------------|
A|--------------------|
E|--------------------|





Chorus (1:28-1:40) - Moog (Transposed for Guitar 1)  
e|-------------------------------------------------| (x4)
B|--6-4-6-4--2-4-6-4-6-8-6-4--(6-4~)---------------|
G|----------------------------(only on last time)--|
D|-------------------------------------------------|
A|-------------------------------------------------|
E|-------------------------------------------------|

Chorus (1:28-1:40) - Guitar 2
e|------------------------------------------------| (x4)
B|------------------------------------------------|
G|--8-8-8-8--5-5-5--7-7-7--(8~)-(last time only)--|
D|--8-8-8-8--5-5-5--7-7-7--(8~)-------------------|
A|--6-6-6-6--3-3-3--5-5-5--(6~)-------------------|
E|------------------------------------------------|





Interlude 1 (1:40-1:50) - Guitar 1 
e|-------------------------------------| (x2)
B|-------------------------------------|
G|--8-8-8-8----------------------------|
D|--8-8-8-8--8-8-8-8--6-6-6-6-6-6-6-6--|
A|--6-6-6-6--8-8-8-8--6-6-6-6-6-6-6-6--|
E|-----------6-6-6-6--4-4-4-4-4-4-4-4--|

Interlude 1 (1:51-1:59) (Play staccato) - Guitar 1 and 2
e|------------------------------------------|
B|------------------------------------------|
G|--8-------------------8~--10~-------------|
D|--8-----3-6------6----8~--10~-------------|
A|--6-----3-6------6----6~--8~--------------|
E|--------1-4------4------------------------|






Chorus (2:00-2:09) - Moog (Transposed for Guitar 1)
e|----------------------------| (x4)
B|--6-4-6-4--2-4-6-4-6-8-6-4--|
G|----------------------------|
D|----------------------------|
A|----------------------------|
E|----------------------------|

Chorus (2:00-2:09) - Guitar 2
e|----------------------------| (x4)
B|----------------------------|
G|--8-8-8-8--5-5-5--7-7-7-----|
D|--8-8-8-8--5-5-5--7-7-7-----|
A|--6-6-6-6--3-3-3--5-5-5-----|
E|----------------------------|

(2:10-2:12) - Guitar 2
e|--------------------|--------------------|
B|--------------------|--------------------|
G|--------------------|--5------6------8~--|
D|--3-3-3-3--3-3-3-3--|--5-(x8)-6-(x8)-8~--|
A|--3-3-3-3--3-3-3-3--|--3------4------6~--|
E|--1-1-1-1--1-1-1-1--|--------------------|

(2:13-2:15) - Moog (Transposed for Guitar 1)
e|--3-------1-3-1-------------| 
B|----4-1-4-------4~----------|
G|----------------------------|
D|----------------------------|
A|----------------------------|
E|----------------------------|





Interlude 2 (2:16-3:06) -  Guitar 1
e|----------------------------| Continously Repeat
B|--4-4-4-4--8p6h8-9-4-4------| 
G|----------------------------|
D|----------------------------|
A|----------------------------|
E|----------------------------|

Interlude 2 (2:26-3:06) - Guitar 2
e|----------------------------| Continuously Repeat 
B|----------------------------|
G|-1/8----8/1-----------------|
D|----------------------------|
A|----------------------------|
E|----------------------------|

Interlude 2 (2:27-2:45) - Guitar 3
e|----------------------------| Continuously Repeat Until Next Segment
B|----------------------------|
G|-------1----5----8----------|
D|----------------------------|
A|----------------------------|
E|----------------------------|

Interlude 2 (2:46-3:07) - Guitar 3
e|--4---4---6---4---(x3)--4---4---4---4----| (x2) 
B|----4---4---4---4---------4---4---4---4--|
G|-----------------------------------------|
D|-----------------------------------------|
A|-----------------------------------------|
E|-----------------------------------------|




I realize that the number of counts is off in this portion of the tablature, 
but this is a tricky part to tab out.  As mentioned before, any help would be greatly appreciated.

Ending (3:07-3:46) - Guitar 1
e|-----4----4----4----4-----6----6----6----6-----8----8----8----8--| 
B|--4-4--4-4--4-4--4-4---4-4--4-4--4-4--4-4---4-4--4-4--4-4--4-4---|
G|-----------------------------------------------------------------|
D|-----------------------------------------------------------------|
A|-----------------------------------------------------------------|
E|-----------------------------------------------------------------|

e|-----6----6----4----4--| (x4)
B|--4-4--4-4--4-4--4-4---|
G|-----------------------|
D|-----------------------|
A|-----------------------|
E|-----------------------|

Piano Chords (3:07-3:48) - Piano/Guitar 2
e|--4----1----3----4---| (x4) 
B|--4----1----4----4---|
G|--5----1----5----5---|
D|--6----3----5----6---|
A|--6----3----3----6---|
E|--4----1----x----4---|


Ending (3:48-4:15) Any Guitar
e|--------------------| Repeat as Desired
B|---8~--7~--8~--7~---|
G|--------------------|
D|--------------------|
A|--------------------|
E|--------------------|

            
            
Suggest correction
Creating personal tab
Creating personal tab
You can edit any tab online and save it as your Personal.

You can edit, replace or remove any tab part or add personal notes – all changes will be seen only by you.

Personal tabs can be accessed anytime from any device, even offline.
Learn more »
comments
print report bad tab
5 comments total. Showing first comments.
0 reply
JS5150 20 Sep 16, 2006 08:23 AM

well done. 5 stars.

0 reply
sic.transit2 51 Jan 06, 2007 11:30 AM

Perfect except the very end where the notes should be "e|--8~--9~--| instead of e|--7~--8~--|

0 reply
ducktape415 51 Apr 20, 2007 03:32 PM

great job! love this tab it also sounds great acoustic, but the 2nd G# in the "piano chords" should be a C#. but besides that this is a great tab.

guest
You may want to rate the tab now too:
select rating
Wanna post a correction for this tab? Suggest correction