Oops, an error
Loading. Please wait.

August tab

183 views 1 this week
no commentswrite comment
1 2 3 4 5
1 last vote to show rating
add to favorites
×
Save as Personal and add changes to this tab that will be seen only by you. Learn more ›
×
You can save this tab as Personal to edit and correct it or add notes. All changes will be seen only by you. Learn more »
launch autoscroll
font size
0
reset
how to read this tab
guitar tuner
edit
Autoscroll
slow
fast
+/-
esc
set tempo
stop
Author
Difficulty
-------------------------------------------------------------------------------
                             AUGUST - MOTORPSYCHO
-------------------------------------------------------------------------------
Tabbed by: Ercarnar (thanks karmadrome for intro fingering corrections!)
E-mail: franco.cassinelli91@gmail.com

Tuning: Standard


INTRO (Snah):

 
Let ring
e|-------0------0------0--------|-------0------0------0--------|
B|-----6------6------6------6---|-----6------6------6------6---|
G|---7------7------7------7-----|---7------7------7------7-----|  x2
D|-7----------------------------|-7----------------------------|
A|-0----------------------------|-0----------------------------|
E|------------------------------|------------------------------|


e|-8-8-8-8-x-8-x-8-x-8-x-8-x-8-8-x-|-10--x-8---10--/12---12---10\8--|
B|---------------------------------|--------------------------------|
G|-5-5-5-5-x-5-x-5-x-5-x-5-x-5-5-x-|--7--x-5----7--/ 9----9----7\5--|
D|---------------------------------|--------------------------------|
A|---------------------------------|--------------------------------|
E|---------------------------------|--------------------------------|

e|/12---------------------|----------------|-5---5---5---5---5-----|
B|------10----------------|----------------|--5h6-5h6-5h6-5h6-5h6--|
G|/ 9---------------------|----------------|-----------------------|
D|-------7----------------|----------------|-----------------------|
A|------------------------|----------------|-----------------------|
E|------------------------|----------------|-----------------------|

e|-8-8-8-8-x-8-x-8-x-8-x-8-x-8-8-x-|-10--x-8---10--/12---12---10/12--|
B|---------------------------------|---------------------------------|
G|-5-5-5-5-x-5-x-5-x-5-x-5-x-5-5-x-|--7--x-5----7--/ 9----9----7/ 9--|
D|---------------------------------|---------------------------------|
A|---------------------------------|---------------------------------|
E|---------------------------------|---------------------------------|

e|-15---17---------17-15--|-12--/15\12--------------|-----------9----------|----------|
B|------------------------|-------------------------|----------10----------|----------|
G|-12---14---------14-12--|--9--/12\-9--------------|------9---------------|----------|
D|------------------------|----------------------7--|/11-------------------|----------|
A|------------------------|------------------7-9----|----------------------|----------|
E|------------------------|-------------------------|----------------------|----------|

Let ring
e|-------0------0------0--------|-------0------0------0--------|
B|-----6------6------6------6---|-----6------6------6------6---|
G|---7------7------7------7-----|---7------7------7------7-----|  x2
D|-7----------------------------|-7----------------------------|
A|-0----------------------------|-0----------------------------|
E|------------------------------|------------------------------|



VERSE (D major -intro is D minor-)

D                G          D     D4 D
I said August is all that I know

             G          D      D4 D
It's with me wherever I go

                  G        D        D4 D
It's with me when I need a friend

   C                         Em*  ----------  *look at the bottom of the page
It brings me good weather

   C                  Em*
It keeps me together

   C                   
It picks me up when I'm....



down...

e|-------0------0------0--------|
B|-----6------6------6------6---|
G|---7------7------7------7-----|
D|-7----------------------------|
A|-0----------------------------|
E|------------------------------|


e|-8-8-8-8-x-8-x-8-x-8-x-8-x-8-8-x-|-10--x-8---10--/12---12---10\8--|
B|---------------------------------|--------------------------------|
G|-5-5-5-5-x-5-x-5-x-5-x-5-x-5-5-x-|--7--x-5----7--/ 9----9----7\5--|
D|---------------------------------|--------------------------------|
A|---------------------------------|--------------------------------|
E|---------------------------------|--------------------------------|

e|/12---------------------|----------------|-5---5---5---5---5-----|
B|------10----------------|----------------|--5h6-5h6-5h6-5h6-5h6--|
G|/ 9---------------------|----------------|-----------------------|
D|-------7----------------|----------------|-----------------------|
A|------------------------|----------------|-----------------------|
E|------------------------|----------------|-----------------------|

e|-8-8-8-8-x-8-x-8-x-8-x-8-x-8-8-x-|-10--x-8---10--/12---12---10/12--|
B|---------------------------------|---------------------------------|
G|-5-5-5-5-x-5-x-5-x-5-x-5-x-5-5-x-|--7--x-5----7--/ 9----9----7/ 9--|
D|---------------------------------|---------------------------------|
A|---------------------------------|---------------------------------|
E|---------------------------------|---------------------------------|

e|-15---17---------17-15--|-12--/15\12--------------|-----------9----------|----------|
B|------------------------|-------------------------|----------10----------|----------|
G|-12---14---------14-12--|--9--/12\-9--------------|------9---------------|----------|
D|------------------------|----------------------7--|/11-------------------|----------|
A|------------------------|------------------7-9----|----------------------|----------|
E|------------------------|-------------------------|----------------------|----------|

Let ring
e|-------0------0------0--------|-------0------0------0--------|
B|-----6------6------6------6---|-----6------6------6------6---|
G|---7------7------7------7-----|---7------7------7------7-----|  x2
D|-7----------------------------|-7----------------------------|
A|-0----------------------------|-0----------------------------|
E|------------------------------|------------------------------|


VERSE

D               G          D     D4 D
Good evenings I love you I do

               G            D    D4 D
I share all my dinings with you

                      G         D    D4 D
But I can't help from wondering why

    C                  Em*
You are so good to me

    C                      Em
You do good things for me

    C                   
You pick me up when I'm...



  down...

e|-------0------0------0--------|
B|-----6------6------6------6---|
G|---7------7------7------7-----|
D|-7----------------------------|
A|-0----------------------------|
E|------------------------------|


e|-8-8-8-8-x-8-x-8-x-8-x-8-x-8-8-x-|-10--x-8---10--/12---12---10\8--|
B|---------------------------------|--------------------------------|
G|-5-5-5-5-x-5-x-5-x-5-x-5-x-5-5-x-|--7--x-5----7--/ 9----9----7\5--|
D|---------------------------------|--------------------------------|
A|---------------------------------|--------------------------------|
E|---------------------------------|--------------------------------|

e|/12---------------------|----------------|-5---5---5---5---5-----|
B|------10----------------|----------------|--5h6-5h6-5h6-5h6-5h6--|
G|/ 9---------------------|----------------|-----------------------|
D|-------7----------------|----------------|-----------------------|
A|------------------------|----------------|-----------------------|
E|------------------------|----------------|-----------------------|

e|-8-8-8-8-x-8-x-8-x-8-x-8-x-8-8-x-|-10--x-8---10--/12---12---10/12--|
B|---------------------------------|---------------------------------|
G|-5-5-5-5-x-5-x-5-x-5-x-5-x-5-5-x-|--7--x-5----7--/ 9----9----7/ 9--|
D|---------------------------------|---------------------------------|
A|---------------------------------|---------------------------------|
E|---------------------------------|---------------------------------|

e|-15---17---------17-15--|-12--/15\12--------------|-----------9----------|----------|
B|------------------------|-------------------------|----------10----------|----------|
G|-12---14---------14-12--|--9--/12\-9--------------|------9---------------|----------|
D|------------------------|----------------------7--|/11-------------------|----------|
A|------------------------|------------------7-9----|----------------------|----------|
E|------------------------|-------------------------|----------------------|----------|

Let ring
e|-------0------0------0--------|-------0------0------0--------|
B|-----6------6------6------6---|-----6------6------6------6---|
G|---7------7------7------7-----|---7------7------7------7-----|  x2
D|-7----------------------------|-7----------------------------|
A|-0----------------------------|-0----------------------------|
E|------------------------------|------------------------------|


SOLO (Reine's Rhythm part)


e|-x-x-x-8--8-x-x-x-x-x-8--8-x-x-|-x-x-x-8--8-x-x-x-x-x-8--8-x-x-|
B|-x-x-x-6--6-x-x-x-x-x-6--6-x-x-|-x-x-x-6--6-x-x-x-x-x-6--6-x-x-|
G|-x-x-x-7--7-x-x-x-x-x-7--7-x-x-|-x-x-x-7--7-x-x-x-x-x-7--7-x-x-|
D|-------------------------------|-------------------------------|
A|-------------------------------|-------------------------------|
E|-------------------------------|-------------------------------|

e|-5-x-x-5-x-x-5-x-x-5-x-x-5-x-x-5-|-x-x-5-x-x-5-x-x-5-x-x-5-x-x-5-x-||
B|-5-x-x-5-x-x-5-x-x-5-x-x-5-x-x-5-|-x-x-5-x-x-5-x-x-5-x-x-5-x-x-5-x-||
G|-6-x-x-6-x-x-6-x-x-6-x-x-6-x-x-6-|-x-x-6-x-x-6-x-x-6-x-x-6-x-x-6-x-||
D|-7-x-x-7-x-x-7-x-x-7-x-x-7-x-x-7-|-x-x-7-x-x-7-x-x-7-x-x-7-x-x-7-x-||
A|-7-x-x-7-x-x-7-x-x-7-x-x-7-x-x-7-|-x-x-7-x-x-7-x-x-7-x-x-7-x-x-7-x-||
E|-5-x-x-5-x-x-5-x-x-5-x-x-5-x-x-5-|-x-x-5-x-x-5-x-x-5-x-x-5-x-x-5-x-||

x many times


Solo is D dorian and A major following the chords



INTRO RIFF


Let ring
e|-------0------0------0--------|-------0------0------0--------|
B|-----6------6------6------6---|-----6------6------6------6---|
G|---7------7------7------7-----|---7------7------7------7-----|  x2
D|-7----------------------------|-7----------------------------|
A|-0----------------------------|-0----------------------------|
E|------------------------------|------------------------------|


e|-8-8-8-8-x-8-x-8-x-8-x-8-x-8-8-x-|-10--x-8---10--/12---12---10/12--|
B|---------------------------------|---------------------------------|
G|-5-5-5-5-x-5-x-5-x-5-x-5-x-5-5-x-|--7--x-5----7--/ 9----9----7/ 9--|
D|---------------------------------|---------------------------------|
A|---------------------------------|---------------------------------|
E|---------------------------------|---------------------------------|


e|15----17------------|
B|--------------------|
G|12----14------------|
D|--------------------|
A|--------------------|
E|--------------------|



e|-----0---------||
B|---6-----------||
G|--7------------||
D|-7-------------||
A|---------------||
E|---------------||



=====================================NOTES=============================================
=======================================================================================

In the verse, when there's Em, play this:

e|---3p0--0---3p0----0----|
B|----------0-------------|
G|-0--------0-------------|
D|-2----------------------|
A|-2----------------------|
E|-0----------------------|





***************************************************************************************

| /   slide up
| \   slide down
| h   hammer-on
| p   pull-off
| ~   vibrato
| +   harmonic
| x   Mute note
| b   Bend
| pb  Pre-bend
| br  Bend release
| pbr Pre-bend release
| brb Bend release bend

************************************

            
            
Suggest correction
Creating personal tab
Creating personal tab
You can edit any tab online and save it as your Personal.

You can edit, replace or remove any tab part or add personal notes – all changes will be seen only by you.

Personal tabs can be accessed anytime from any device, even offline.
Learn more »
Give kudos to tab author, rate the tab!
1 2 3 4 5
comments
print report bad tab
guest
You may want to rate the tab now too:
select rating
Wanna post a correction for this tab? Suggest correction