Oops, an error
Loading. Please wait.

Blueberry Daydream tab

19 views 1 this week
no commentswrite comment
1 2 3 4 5
3 more votes to show rating
add to favorites
×
Save as Personal and add changes to this tab that will be seen only by you. Learn more ›
×
You can save this tab as Personal to edit and correct it or add notes. All changes will be seen only by you. Learn more »
launch autoscroll
font size
0
reset
how to read this tab
guitar tuner
edit
Autoscroll
slow
fast
+/-
esc
set tempo
stop
Artist: Motorpsycho
Song: Blueberry Daydream
Author: Meuwh
Tuning: Eb Ab Db Gb Bb eb (half step down)

[Intro]
eb|-----------<12>-|-----|------|------|------|
Bb|---------<12>---|-----|------|------|------|
Gb|-------<12>-----|-----|------|------|------|
Db|-----<12>-------|--9--|--14--|--12--|--11--|
Ab|---<12>---------|--7--|--12--|--10--|--9---|
Eb|-<12>-----------|--0--|--0---|--0---|--0---|

eb|--0-0--0-0-0---0--0--0---0--0--0-0-0---0--0--0--0-0-0--|
Bb|--0-0--0-0-0---0--0--0---0--0--0-0-0---0--0--0--0-0-0--|
Gb|--x-x--9-9-9---x--x--x---x--x--x-x-x---x--x--x--x-x-x--|
Db|--9-9--6-6-6--14-14-14--11-11--7-7-7--11-11-11--9-9-9--| (x4)
Ab|--7-7--7-7-7--12-12-12---9--9--5-5-5---9--9--9--7-7-7--|
Eb|--0-0--0-0-0---0--0--0---0--0--0-0-0---0--0--0--0-0-0--|

eb|--0--0--0--0--0----0--0--0--0--0---|
Bb|--0--0--0--0--0----0--0--0--0--0---|
Gb|--x--x--x--x--x----x--x--x--x--x---|
Db|--9--7--7--7--7----7--7--7--9--9---| (x2)
Ab|--7--5--4--5--4----5--4--5--7--7---|
Eb|--0--0--0--0--0----0--0--0--0--0---|

[Verse]

She’s everything I ever dared to pray for
she’s as beautiful as spring is short

eb|--0--0---0---0--0--0---0--0---|
Bb|--0--0---0---0--0--0---0--0---|
Gb|--x--9---x---x--x--x---x--x---|
Db|--9--6--14--11--7--7--11--9---|
Ab|--7--7--12---9--5--5---9--7---|
Eb|--0--0---0---0--0--0---0--0---|

I love her questions,I love her answers,
I love her voice annd I love her thoughts

eb|--0--0---0---0--0--0---0--0---|
Bb|--0--0---0---0--0--0---0--0---|
Gb|--x--9---x---x--x--x---x--x---|
Db|--9--6--14--11--7--7--11--9---| 
Ab|--7--7--12---9--5--5---9--7---|
Eb|--0--0---0---0--0--0---0--0---|

[Chorus]
eb|--0--0--0--0--0----0--0--0--0--0---|
Bb|--0--0--0--0--0----0--0--0--0--0---|
Gb|--x--x--x--x--x----x--x--x--x--x---|
Db|--9--7--7--7--7----7--7--7--9--9---|
Ab|--7--5--4--5--4----5--4--5--7--7---|
Eb|--0--0--0--0--0----0--0--0--0--0---|

Blueberry Daydream

eb|--0--0--0--0--0----0--0--0--0--0---|
Bb|--0--0--0--0--0----0--0--0--0--0---|
Gb|--x--x--x--x--x----x--x--x--x--x---|
Db|--9--7--7--7--7----7--7--7--9--9---|
Ab|--7--5--4--5--4----5--4--5--7--7---|
Eb|--0--0--0--0--0----0--0--0--0--0---|

eb|--0--0---0---0--0--0---0--0---|
Bb|--0--0---0---0--0--0---0--0---|
Gb|--x--9---x---x--x--x---x--x---|
Db|--9--6--14--11--7--7--11--9---| (x2)
Ab|--7--7--12---9--5--5---9--7---|
Eb|--0--0---0---0--0--0---0--0---|

[Verse]

Sometimes when night is falling
and I am all alone again

eb|--0--0---0---0--0--0---0--0---|
Bb|--0--0---0---0--0--0---0--0---|
Gb|--x--9---x---x--x--x---x--x---|
Db|--9--6--14--11--7--7--11--9---|
Ab|--7--7--12---9--5--5---9--7---|
Eb|--0--0---0---0--0--0---0--0---|

she’ll be painted on the sheets for me to admire
and that piece of art will be my best friend

eb|--0--0---0---0--0--0---0--0---|
Bb|--0--0---0---0--0--0---0--0---|
Gb|--x--9---x---x--x--x---x--x---|
Db|--9--6--14--11--7--7--11--9---|
Ab|--7--7--12---9--5--5---9--7---|
Eb|--0--0---0---0--0--0---0--0---|

[Chorus]
eb|--0--0--0--0--0----0--0--0--0--0---|
Bb|--0--0--0--0--0----0--0--0--0--0---|
Gb|--x--x--x--x--x----x--x--x--x--x---|
Db|--9--7--7--7--7----7--7--7--9--9---|
Ab|--7--5--4--5--4----5--4--5--7--7---|
Eb|--0--0--0--0--0----0--0--0--0--0---|

Blueberry Daydream

eb|--0--0--0--0--0----0--0--0--0--0---|
Bb|--0--0--0--0--0----0--0--0--0--0---|
Gb|--x--x--x--x--x----x--x--x--x--x---|
Db|--9--7--7--7--7----7--7--7--9--9---|
Ab|--7--5--4--5--4----5--4--5--7--7---|
Eb|--0--0--0--0--0----0--0--0--0--0---|

eb|--0--0---0---0--0--0---0--0---|
Bb|--0--0---0---0--0--0---0--0---|
Gb|--x--9---x---x--x--x---x--x---|
Db|--9--6--14--11--7--7--11--9---| (x2)
Ab|--7--7--12---9--5--5---9--7---|
Eb|--0--0---0---0--0--0---0--0---|

[Bridge/Solo]
eb|--0--0--0---0---0---0--0--|
Bb|--0--0--0---0---0---0--0--|
Gb|--x--9--x---x---x---x--x--|
Db|--9--6--9--11--14--11--18-| 
Ab|--7--7--7---9--12---9--16-|
Eb|--0--0--0---0---0---0--0--|

eb|-----|------|------|------|
Bb|-----|------|------|------|
Gb|-----|------|------|------|
Db|--9--|--14--|--12--|--11--|
Ab|--7--|--12--|--10--|--9---|
Eb|--0--|--0---|--0---|--0---|

eb|--0--0--0---0---0---0--0--|
Bb|--0--0--0---0---0---0--0--|
Gb|--x--9--x---x---x---x--x--|
Db|--9--6--9--11--14--11--18-| 
Ab|--7--7--7---9--12---9--16-|
Eb|--0--0--0---0---0---0--0--|

[Verse]
She’s a nightmare-she’s a daydream
She is pure ,but she is soiled
She’s the obsesser -she’s the redeemer
She’s the sickness and she’s the cure 

eb|--0--0-----------|
Bb|--0--0-----------|
Gb|--x--x-----------|
Db|--9--7-----------|
Ab|--7--5-----------|
Eb|--0--0-----------|

Blueberry Daydream

eb|--0--0--0--0--0--0--0--0--0--0--0--0----0--0--0--0--0--0--0--0--0--0--0--0-|
Bb|--0--0--0--0--0--0--0--0--0--0--0--0----0--0--0--0--0--0--0--0--0--0--0--0-|
Gb|--x--x--x--x--x--x--x--x--x--x--x--x----x--x--x--x--x--x--x--x--x--x--x--x-|
Db|--9--9--9--9--9--9--9--9--7--7--7--7----9--9--9--9--9--9--9--9--7--7--7--7-| (x2)
Ab|--7--7--7--7--7--7--7--7--5--4--5--4----7--7--7--7--7--7--7--7--5--4--5--4-|
Eb|--0--0--0--0--0--0--0--0--0--0--0--0----0--0--0--0--0--0--0--0--0--0--0--0-|

eb|--0--0---0---0--0--0---0--0---|
Bb|--0--0---0---0--0--0---0--0---|
Gb|--x--9---x---x--x--x---x--x---|
Db|--9--6--14--11--7--7--11--9---| (x2)
Ab|--7--7--12---9--5--5---9--7---|
Eb|--0--0---0---0--0--0---0--0---|


*************************

| x  Mute
| <> Pinch 

*************************

            
            
Suggest correction
Creating personal tab
Creating personal tab
You can edit any tab online and save it as your Personal.

You can edit, replace or remove any tab part or add personal notes – all changes will be seen only by you.

Personal tabs can be accessed anytime from any device, even offline.
Learn more »
Give kudos to tab author, rate the tab!
1 2 3 4 5
comments
print report bad tab
guest
You may want to rate the tab now too:
select rating
Wanna post a correction for this tab? Suggest correction