Oops, an error
Loading. Please wait.

She Left On The Sunship tab

25 views 1 this week
no commentswrite comment
1 2 3 4 5
3 more votes to show rating
add to favorites
×
Save as Personal and add changes to this tab that will be seen only by you. Learn more ›
×
You can save this tab as Personal to edit and correct it or add notes. All changes will be seen only by you. Learn more »
launch autoscroll
font size
0
reset
how to read this tab
guitar tuner
edit
Autoscroll
slow
fast
+/-
esc
set tempo
stop
Artist: Motorpsycho
Song: She Left on the Sunship
Tuning: E-G-E-G-B-D 


D|-----------------------0-3-0-----|
B|-1p0------1p0--------------------|
G|-----2--------2---2-3---------3--|
E|-------3--------3----------------| X 3
G|---------------------------------|
E|---------------------------------|

D|-----------------------|
B|-1p0------1p0----------|
G|-----2--------2---2--3-|
E|-------3--------3------|
G|-----------------------|
E|-----------------------|

D|-0-3-0-----------|-3-0------------|
B|---------------1-|--------------1-|
G|--------3--2-3---|------3--2-3----|
E|-----------------|----------------|
G|-----------------|----------------|
E|-----------------|----------------|

D|-3-0------------|
B|--------------1-|
G|------3--2-3----|
E|----------------| X 2
G|----------------|
E|----------------|

D|--------------------------------------------------------------------------------------|
B|---------------------13-13-13-13-13--10--12-12-12-12-12-12-12-12-12-12-12-12-12-12-12-|
G|-15-15-15-15-15--17-------------------------------------------------------------------|
E|---------------------13-13-13-13-13--10--12-12-12-12-12-12-12-12-12-12-12-12-12-12-12-|
G|-15-15-15-15-15--17-------------------------------------------------------------------|
E|--------------------------------------------------------------------------------------|

D|--------------------------------------------------------------------------------------|
B|---------------------13-13-13-13-13--10--11-11-11-11-11-11-11-11-11-11-11-11-11-11-11-|
G|-15-15-15-15-15--17-------------------------------------------------------------------|
E|---------------------13-13-13-13-13--10--11-11-11-11-11-11-11-11-11-11-11-11-11-11-11-|
G|-15-15-15-15-15--17-------------------------------------------------------------------|
E|--------------------------------------------------------------------------------------|

D|------------------------------------------------------------------------------------------|
B|---------------------13-13-13-13-13--10--12-12-12-12-12--8--11-11-11-11-11-11-11-11-11-11-|
G|-15-15-15-15-15--17-----------------------------------------------------------------------|
E|---------------------13-13-13-13-13--10--12-12-12-12-12--8--11-11-11-11-11-11-11-11-11-11-|
G|-15-15-15-15-15--17-----------------------------------------------------------------------|
E|------------------------------------------------------------------------------------------|

D|------3-3-3-3-3-3-3-3-3-3-3-3-3-3-3-|
B|------3-3-3-3-3-3-3-3-3-3-3-3-3-3-3-|
G|-7-5--3-3-3-3-3-3-3-3-3-3-3-3-3-3-3-|
E|------------------------------------|
G|------------------------------------|
E|------------------------------------|


[Verse]

So they finally let you slip away

D|--------------------------------------------------------------------------------------------|
B|-3\2--3--3\2--3--3\2--3--3/5--5/-6---6---6---6---6---6---6---6---6---6---6---6---6---6---6--|
G|-0-0--0--0-0--0--0-0--0--0-0--0-(0)-(0)-(0)-(0)-(0)-(0)-(0)-(0)-(0)-(0)-(0)-(0)-(0)-(0)-(0)-|
E|-3\2--3--3\2--3--3\2--3--3/5--5/-6---6---6---6---6---6---6---6---6---6---6---6---6---6---6--|
G|--------------------------------------------------------------------------------------------|
E|--------------------------------------------------------------------------------------------|


As the final act in this tragic pitiful play

D|-------------------------------------------------|
B|-3\2--3--3\2--3--3\2--3--3/5--5/6--3---0-0-0-0-0-|
G|-0-0--0--0-0--0--0-0--0--0-0--0-0--0---0-0-0-0-0-|
E|-3\2--3--3\2--3--3\2--3--3/5--5/6--3---0-0-0-0-0-|
G|-------------------------------------------------|
E|-------------------------------------------------|


I hope the burden is finally off your back

D|------------------------------------------------------------------------------------------|
B|-3\2--3--3\2--3--3\2--3--3/5---4---4---4---4---4---4---4---4---4---4---4---4---4---4---4--|
G|-0-0--0--0-0--0--0-0--0--0-0--(0)-(0)-(0)-(0)-(0)-(0)-(0)-(0)-(0)-(0)-(0)-(0)-(0)-(0)-(0)-|
E|-3\2--3--3\2--3--3\2--3--3/5---4---4---4---4---4---4---4---4---4---4---4---4---4---4---4--|
G|------------------------------------------------------------------------------------------|
E|------------------------------------------------------------------------------------------|


[Chorus]

Cause its cruel and unfair to be given such a cross to bear
Over such a long time and its punished my f..?

D|-------------|-------------|-------------------------------------|
B|--4---4---6--|--6---6---8--|--8---8---8---8---8---8---8---8---10-|
G|-(0)-(0)-(0)-|-(0)-(0)-(0)-|-(0)-(0)-(0)-(0)-(0)-(0)-(0)-(0)-(0)-|
E|--4---4---6--|--6---6---8--|--8---8---8---8---8---8---8---8---10-|
G|-------------|-------------|-------------------------------------|
E|-------------|-------------|-------------------------------------|

D|--------------------|--------------------------|
B|--4---4---4---4---6-|--3---3---3---3---10---8--|
G|-(0)-(0)-(0)-(0)-(0)|-(0)-(0)-(0)-(0)--(0)-(0)-|
E|--4---4---4---4---6-|--3---3---3---3---10---8--|
G|--------------------|--------------------------|
E|--------------------|--------------------------|


[Bridge]

D|--------------------------------------------------------------------------------------|
B|---------------------13-13-13-13-13--10--12-12-12-12-12-12-12-12-12-12-12-12-12-12-12-|
G|-15-15-15-15-15--17-------------------------------------------------------------------|
E|---------------------13-13-13-13-13--10--12-12-12-12-12-12-12-12-12-12-12-12-12-12-12-|
G|-15-15-15-15-15--17-------------------------------------------------------------------|
E|--------------------------------------------------------------------------------------|

D|--------------------------------------------------------------------------------------|
B|---------------------13-13-13-13-13--10--11-11-11-11-11-11-11-11-11-11-11-11-11-11-11-|
G|-15-15-15-15-15--17-------------------------------------------------------------------|
E|---------------------13-13-13-13-13--10--11-11-11-11-11-11-11-11-11-11-11-11-11-11-11-|
G|-15-15-15-15-15--17-------------------------------------------------------------------|
E|--------------------------------------------------------------------------------------|

D|------------------------------------------------------------------------------------------|
B|---------------------13-13-13-13-13--10--12-12-12-12-12--8--11-11-11-11-11-11-11-11-11-11-|
G|-15-15-15-15-15--17-----------------------------------------------------------------------|
E|---------------------13-13-13-13-13--10--12-12-12-12-12--8--11-11-11-11-11-11-11-11-11-11-|
G|-15-15-15-15-15--17-----------------------------------------------------------------------|
E|------------------------------------------------------------------------------------------|

D|------3-3-3-3-3-3-3-3-3-3-3-3-3-3-3-|
B|------3-3-3-3-3-3-3-3-3-3-3-3-3-3-3-|
G|-7-5--3-3-3-3-3-3-3-3-3-3-3-3-3-3-3-|
E|------------------------------------|
G|------------------------------------|
E|------------------------------------|


[Verse]

What an unfair fate to rationalize

D|--------------------------------------------------------------------------------------------|
B|-3\2--3--3\2--3--3\2--3--3/5--5/-6---6---6---6---6---6---6---6---6---6---6---6---6---6---6--|
G|-0-0--0--0-0--0--0-0--0--0-0--0-(0)-(0)-(0)-(0)-(0)-(0)-(0)-(0)-(0)-(0)-(0)-(0)-(0)-(0)-(0)-|
E|-3\2--3--3\2--3--3\2--3--3/5--5/-6---6---6---6---6---6---6---6---6---6---6---6---6---6---6--|
G|--------------------------------------------------------------------------------------------|
E|--------------------------------------------------------------------------------------------|

What hopelessly lopsided factions to summarize

D|-------------------------------------------------|
B|-3\2--3--3\2--3--3\2--3--3/5--5/6--3---0-0-0-0-0-|
G|-0-0--0--0-0--0--0-0--0--0-0--0-0--0---0-0-0-0-0-|
E|-3\2--3--3\2--3--3\2--3--3/5--5/6--3---0-0-0-0-0-|
G|-------------------------------------------------|
E|-------------------------------------------------|

Damn straight i had fate struck a better blow

D|------------------------------------------------------------------------------------------|
B|-3\2--3--3\2--3--3\2--3--3/5---4---4---4---4---4---4---4---4---4---4---4---4---4---4---4--|
G|-0-0--0--0-0--0--0-0--0--0-0--(0)-(0)-(0)-(0)-(0)-(0)-(0)-(0)-(0)-(0)-(0)-(0)-(0)-(0)-(0)-|
E|-3\2--3--3\2--3--3\2--3--3/5---4---4---4---4---4---4---4---4---4---4---4---4---4---4---4--|
G|------------------------------------------------------------------------------------------|
E|------------------------------------------------------------------------------------------|


[Chorus]

Cause its cruel and unfair to be given such a cross to bear
To be cut down in your prime with mountain ranges still left to climb

D|-------------|-------------|-------------------------------------|
B|--4---4---6--|--6---6---8--|--8---8---8---8---8---8---8---8---10-|
G|-(0)-(0)-(0)-|-(0)-(0)-(0)-|-(0)-(0)-(0)-(0)-(0)-(0)-(0)-(0)-(0)-|
E|--4---4---6--|--6---6---8--|--8---8---8---8---8---8---8---8---10-|
G|-------------|-------------|-------------------------------------|
E|-------------|-------------|-------------------------------------|

D|--------------------|--------------------------|
B|--4---4---4---4---6-|--3---3---3---3---10---9--|
G|-(0)-(0)-(0)-(0)-(0)|-(0)-(0)-(0)-(0)--(0)-(0)-|
E|--4---4---4---4---6-|--3---3---3---3---10---9--|
G|--------------------|--------------------------|
E|--------------------|--------------------------|

[Verse]

Such an un ..?
You're on the ..? praying
Finally whole again

Whatever you may mean to them
To me you were a friend

D|--------------------------------------------------------------------------------------|
B|---------------------13-13-13-13-13--10--12-12-12-12-12-12-12-12-12-12-12-12-12-12-12-|
G|-15-15-15-15-15--17-------------------------------------------------------------------|
E|---------------------13-13-13-13-13--10--12-12-12-12-12-12-12-12-12-12-12-12-12-12-12-|
G|-15-15-15-15-15--17-------------------------------------------------------------------|
E|--------------------------------------------------------------------------------------|

D|--------------------------------------------------------------------------------------|
B|---------------------13-13-13-13-13--10--11-11-11-11-11-11-11-11-11-11-11-11-11-11-11-|
G|-15-15-15-15-15--17-------------------------------------------------------------------|
E|---------------------13-13-13-13-13--10--11-11-11-11-11-11-11-11-11-11-11-11-11-11-11-|
G|-15-15-15-15-15--17-------------------------------------------------------------------|
E|--------------------------------------------------------------------------------------|

D|------------------------------------------------------------------------------------------|
B|---------------------13-13-13-13-13--10--12-12-12-12-12--8--11-11-11-11-11-11-11-11-11-11-|
G|-15-15-15-15-15--17-----------------------------------------------------------------------|
E|---------------------13-13-13-13-13--10--12-12-12-12-12--8--11-11-11-11-11-11-11-11-11-11-|
G|-15-15-15-15-15--17-----------------------------------------------------------------------|
E|------------------------------------------------------------------------------------------|

D|------3-3-3-3-3-3-3-3-3-3-3-3-3-3-3-|
B|------3-3-3-3-3-3-3-3-3-3-3-3-3-3-3-|
G|-7-5--3-3-3-3-3-3-3-3-3-3-3-3-3-3-3-|
E|------------------------------------|
G|------------------------------------|
E|------------------------------------|


[Outro]

D|----<12>----------------------|
B|----<12>----------------------|
G|----<12>----------------------|
E|----<12>-----------------<12>-|
G|----<12>-----------------<12>-|
E|-0-------(0)-(0)-(0)-(0)------|

D|--------------------|----------------------|
B|--------------------|----------------------|
G|--------------------|----------------------|
E|--------------------|-----------------<12>-|
G|-12h14p12h14p12--11-|-----------------<12>-|
E|--------------------|-(0)-(0)-(0)-(0)------|


(5:26)

D|-----------------------0-3-0-----|
B|-1p0------1p0--------------------|
G|-----2--------2---2-3---------3~~|
E|-------3--------3----------------|
G|---------------------------------|
E|---------------------------------|

D|-----------------------0-3-0-----|
B|-1p0------1p0--------------------|
G|-----2--------2---2-3---------3--|
E|-------3--------3----------------| X 3
G|---------------------------------|
E|---------------------------------|

D|-----------------------|
B|-1p0------1p0----------|
G|-----2--------2---2--3-|
E|-------3--------3------|
G|-----------------------|
E|-----------------------|

D|-0-3-0-----------|-3-0------------|
B|---------------1-|--------------1-|
G|--------3--2-3---|------3--2-3----|
E|-----------------|----------------|
G|-----------------|----------------|
E|-----------------|----------------|

D|-3-0------------|
B|--------------1-|
G|------3--2-3----|
E|----------------| X 2
G|----------------|
E|----------------|

(6:15)
D|----<12>--|---------------------<12>-|
B|----<12>--|---------------------<12>-|
G|----<12>--|-12h14p12h14p12------<12>-|
E|----<12>--|-----------------14--<12>-|
G|----<12>--|---------------------<12>-|
E|-0--------|--------------------------|

D|---------------------<12>-|
B|---------------------<12>-|
G|-12h14p12h14p12------<12>-|
E|-----------------14--<12>-| x 11
G|---------------------<12>-|
E|--------------------------|

(6:56)
D|---------------------------------|
B|---------------------------------|
G|-12h14p12h14--15-15-15-15-15--17-|
E|---------------------------------|
G|--------------15-15-15-15-15--17-|
E|---------------------------------|

D|--------------------------------------------------------------------------------------|
B|---------------------13-13-13-13-13--10--12-12-12-12-12-12-12-12-12-12-12-12-12-12-12-|
G|-15-15-15-15-15--17-------------------------------------------------------------------|
E|---------------------13-13-13-13-13--10--12-12-12-12-12-12-12-12-12-12-12-12-12-12-12-|
G|-15-15-15-15-15--17-------------------------------------------------------------------|
E|--------------------------------------------------------------------------------------|

D|--------------------------------------------------------------------------------------|
B|---------------------13-13-13-13-13--10--11-11-11-11-11-11-11-11-11-11-11-11-11-11-11-|
G|-15-15-15-15-15--17-------------------------------------------------------------------|
E|---------------------13-13-13-13-13--10--11-11-11-11-11-11-11-11-11-11-11-11-11-11-11-|
G|-15-15-15-15-15--17-------------------------------------------------------------------|
E|--------------------------------------------------------------------------------------|

D|------------------------------------------------------------------------------------------|
B|---------------------13-13-13-13-13--10--12-12-12-12-12--8--11-11-11-11-11-11-11-11-11-11-|
G|-15-15-15-15-15--17-----------------------------------------------------------------------|
E|---------------------13-13-13-13-13--10--12-12-12-12-12--8--11-11-11-11-11-11-11-11-11-11-|
G|-15-15-15-15-15--17-----------------------------------------------------------------------|
E|------------------------------------------------------------------------------------------|

D|------3-3-3-3-3-3-3-3-3-3-3-3-3-3-3-|
B|------3-3-3-3-3-3-3-3-3-3-3-3-3-3-3-|
G|-7-5--3-3-3-3-3-3-3-3-3-3-3-3-3-3-3-|
E|------------------------------------|
G|------------------------------------|
E|------------------------------------|



*****************************
/  Slide up
\  Slide down
p  Pull off
h  Hammer on
() Mute note
~  Vibrator
<> Harmonic
*****************************


            
            
Suggest correction
Creating personal tab
Creating personal tab
You can edit any tab online and save it as your Personal.

You can edit, replace or remove any tab part or add personal notes – all changes will be seen only by you.

Personal tabs can be accessed anytime from any device, even offline.
Learn more »
Give kudos to tab author, rate the tab!
1 2 3 4 5
comments
print report bad tab
guest
You may want to rate the tab now too:
select rating
Wanna post a correction for this tab? Suggest correction