Oops, an error
Loading. Please wait.

Trapdoor chords

43 views 1 this week
no commentswrite comment
1 2 3 4 5
2 more votes to show rating
add to favorites
×
Save as Personal and add changes to this tab that will be seen only by you. Learn more ›
×
You can save this tab as Personal to edit and correct it or add notes. All changes will be seen only by you. Learn more »
launch autoscroll
font size
0
reset
transpose
0
reset
simplify chords
display chords
guitar tuner
edit
Autoscroll
slow
fast
+/-
esc
set tempo
stop
Strumming
There is no strumming pattern for this song yet. and get +5 IQ
Trapdoor - Motorpsycho
Tabbed by: Meuwh
Tuning: Standard E
Extra note: The solo is not tabbed by me.
This can be found on http://motorpsycho.fix.no/musicbox/guitartab/motortab/trapdmorten.txt

***********************************
Some chords are played a bit differently:

Fm7     x-x-3-2-1-0
Cm7     x-3-2-0-0-0
Dsus4   x-x-0-2-3-3
Cadd9   x-3-2-0-3-3
G6      x-x-5-4-3-0
***********************************

[Intro]
Am A7sus2 Fm7
Am G6   Em     X2

[Verse 1]
Am          A7sus2         Fm7
It’s such a sorry sight to see you now
Am         G6              Em
I swear it hurts me to the bone
Am         A7sus2        Fm7
how come I never see you laugh anymore?
Am                G6         Em
you could’ve been made outta stone

[Chorus]
Cm7                       Dsus2             Cm7
from far away I thought I heard you call my name
                       Dsus2        Cm7
but I tell you I ain’t coming back again
                         Dsus2              Cm7
if you don’t know how to shut that trapdoor tight
             A7sus2   Dsus2
I just can’t help you through the night

[Bridge]
Am    A7sus2    Fm7
Am    G6        Fm7

[Verse 2]
Am             A7sus2             Fm7
gone are those lovely eyes that I once knew
Am          G6          Em
why can’t I see them anymore
Am          A7sus2          Fm7
if there is anything that I can do
Am             G6          Em
you’ll have to open up the door

[Bridge]
Bm       Em
standing on your back-porch
Bm     Em
lookin in your window
Bm           Em             Dsus2   Cm7
it felt like summertime had blown a fuse
Bm        Em
I smashed that window,
Bm         Em
and cut my wrist wide open
B              Em           Dsus2 Cm7       Dsus2  Cm7
why can’t this feeling just bleed away
Dsus2  Cm7        Dsus2  Em
bleed away

[Solo]
G    Cadd9   G    Cadd9   G    Dsus4   G    Dsus4    Cadd9
e|---------------------------------------------------------------------------|
B|---------12--12--12--13--12------------------------------12--12------------|
G|-----------------------------14--14--12--14--14------------------14--------|
D|--12h14------------------------------------------12--14--------------------|
A|---------------------------------------------------------------------------|
E|---------------------------------------------------------------------------|

e|----------------14b15~-------------------------12--14--12------------------|
B|--12--12~--------------------------------------------------15--------------|
G|---------------------------------------------------------------------------|
D|----------------------------14h17--14--17--14------------------------------|
A|---------------------------------------------------------------------------|
E|---------------------------------------------------------------------------|

e|--14--12-------------------------------------------------------------------|
B|----------15----12--12--12--13--12------------------------------12--12-----|
G|------------------------------------14--14--12--14--14---------------------|
D|--------------------------------------------------------12--14-------------|
A|---------------------------------------------------------------------------|
E|---------------------------------------------------------------------------|

e|--------------------------------------------14b15~-------------------------|
B|------12--12---------------------------------------------------------------|
G|--14----------12--14--14b16br14--12------12--------------------------------|
D|-------------------------------------14------------------------------------|
A|---------------------------------------------------------------------------|
E|---------------------------------------------------------------------------|

e|------------------------------------------------12--14--12-----------------|
B|------------------------------------------------------------15-------------|
G|---------------------------------------------------------------------------|
D|-----------------------------14h17--14--17--14-----------------------------|
A|---------------------------------------------------------------------------|
E|---------------------------------------------------------------------------|

e|--14p12------14p12------14p12------14--15~---------------------------------|
B|---------15---------15---------15------------------------------------------|
G|---------------------------------------------------------------------------|
D|---------------------------------------------------------------------------|
A|---------------------------------------------------------------------------|
E|---------------------------------------------------------------------------|

[Chorus]
Cm7                       Dsus2             Cm7
from far away I thought I heard you call my name
                       Dsus2        Cm7
but I tell you I ain’t coming back again
                         Dsus2              Cm7
if you don’t know how to shut that trapdoor tight
             A7sus2   Dsus2
I just can’t help you through the night

[Outro]
G      Cm7    G    Dsus4    Cadd9
G      Em7    G    Dsus4    Cadd9
G      Cadd9  Em   Dsus4    D
G      Em7    G    Em       D
Cadd9  D      G

***********************************
| h   Hammer-on
| p   Pull-off
| ~   Vibrato
| b   Bend
| br  Bend release
***********************************

            
            
Suggest correction
Creating personal tab
Creating personal tab
You can edit any tab online and save it as your Personal.

You can edit, replace or remove any tab part or add personal notes – all changes will be seen only by you.

Personal tabs can be accessed anytime from any device, even offline.
Learn more »
Give kudos to tab author, rate the tab!
1 2 3 4 5
comments
print report bad tab
guest
You may want to rate the tab now too:
select rating
Wanna post a correction for this tab? Suggest correction