Oops, an error
Loading. Please wait.

Roll Away The Stone chords

version 1
version 1

Whole song

Interactive

19,432 views 42 this week
2 commentsread comments
1 2 3 4 5
x 4
add to favorites
×
Save as Personal and add changes to this tab that will be seen only by you. Learn more ›
×
You can save this tab as Personal to edit and correct it or add notes. All changes will be seen only by you. Learn more »
launch autoscroll
font size
0
reset
transpose
0
reset
simplify chords
display chords
guitar tuner
edit
Autoscroll
slow
fast
+/-
esc
set tempo
stop
Author
Unregistered
Strumming
There is no strumming pattern for this song yet. and get +5 IQ
Mott the Hoople

Roll Away The Stone.

[Intro]

SL                    SL                SL                        BU
e--------------------------------------------------------------------------------------|
b--------12--13---17---------12--13---17---------12---13---15---15---17---15---17------|
g----14-----------------14-----------------14------------------------------------------|
d--------------------------------------------------------------------------------------|
a--------------------------------------------------------------------------------------|
e--------------------------------------------------------------------------------------|


SL                    SL                SL                        BU        BU
e---------------------------------------------------------------------------------|
b--------12--13---17---------12--13---17---------12---13---15---15---17---15---17-|
g----14-----------------14-----------------14-------------------------------------|
d---------------------------------------------------------------------------------|
a---------------------------------------------------------------------------------|
e---------------------------------------------------------------------------------|

[Verse]

C         G                    E7
Baby if you?d just say you care
               Am       G      F
I?d follow you most anywhere
                C
Roll away the stone
                G       F
Roll away the stone


And in the darkest night
I?d keep you safe and alright
Roll away the stone
Roll away the stone

[Chorus]

               C            G           F                     G
Won?t you roll away the stone           (Sha la la la)
               C            G   F                     G
Why be cold and so alone                        (Sha la la la)
               C            G           F
Won?t you roll away the stone
               G             Am
Don?t you let it die

[Repeat Intro]

[Verse]

No matter if fools say we can?t win
I know I?d fall in love again
Roll away the stone
Roll away the stone

So sing ?We still got chance?
Baby at love and sweet romance
Roll away the stone
Roll away the stone

[Repeat Chorus and Intro]

Fill:

         Eb7
There?s a rockabilly party on Saturday night
               Ab
Are you gonna be there? ? I got my invite
Eb7
Gonna bring your records? ? Oh will do!
Gsus    G              Gsus   G
Ha ha ha                made it!


[Repeat Chorus. Go to a ?C? on ?die?]


Come on roll! (Won?t you roll away the stone)

[Repeat and fade]

            
            
Suggest correction
Creating personal tab
Creating personal tab
You can edit any tab online and save it as your Personal.

You can edit, replace or remove any tab part or add personal notes – all changes will be seen only by you.

Personal tabs can be accessed anytime from any device, even offline.
Learn more »
comments
print report bad tab
2 comments total.
0 reply
ThePurpleRabbit 469 Dec 17, 2005 06:04 AM

Try: Am/G instead of the Am.

apart from that.. Awesome!

0 reply
jonnycrue1985 26 Aug 11, 2010 09:10 AM

i believe the chords for the verse are..
D,C#/D,Bm,F#,G,A,D,A,G
thats just what i found when i learned it by ear,the intro is good
forgive me if im mistaken

guest
Wanna post a correction for this tab? Suggest correction