Oops, an error
Loading. Please wait.

Never In My Life tab

version 3
version 3

Whole song

Interactive

564 views 6 this week
no commentswrite comment
1 2 3 4 5
2 more votes to show rating
add to favorites
×
Save as Personal and add changes to this tab that will be seen only by you. Learn more ›
×
You can save this tab as Personal to edit and correct it or add notes. All changes will be seen only by you. Learn more »
launch autoscroll
font size
0
reset
how to read this tab
guitar tuner
edit
Autoscroll
slow
fast
+/-
esc
set tempo
stop
Author
Difficulty
NEVER IN MY LIFE

As recorded by Mountain
(From the 1970 Album CLIMBING)

Words and Music by Leslie West, Felix Pappalardi, Gail Collins & Corky Laing

Transcribed by Slowhand


Gtr I (E A D G B E) - 'Leslie West - Electric Guitar 1'
Gtr II (E A D G B E) - 'Leslie West - Electric Guitar 2'
Gtr III (E A D G B E) - 'Leslie West - Electric Guitar 3'


 Intro 1
  Q=80
  D5                             A5                   D5
 4/4
  Gtr I
  H    S S S S S S S S   S   +S  S S +H     S S S S   H    S S S S S S S S
|----------------------|----------------------------|----------------------|
|----------------------|----------------------5-----|----------------------|
|-2--------------------|-----------2-(2)------2---0-|-2--------------------|
|-0--------------------|---------2-2-(2)----------0-|-0--------------------|
|------3-2-3-2-3-2-3-2-|---------0----------------0-|------3-2-3-2-3-2-3-2-|
|----------------------|-3b5-(3)--------------------|----------------------|
|
| Gtr II
| H    S S S S S S S S   S   +S  S S +H.              H    S S S S S S S S
|----------------------|----------------------------|----------------------|
|----------------------|----------------------------|----------------------|
|-2--------------------|-----------2-(2)------------|-2--------------------|
|-0--------------------|---------2-2-(2)------------|-0--------------------|
|------3-2-3-2-3-2-3-2-|---------0------------------|------3-2-3-2-3-2-3-2-|
|----------------------|-3b5-(3)--------------------|----------------------|


          A5
                                          ~~~~
  S    S  S     S +E  S S S   S S   S    +S   E S
|----------------------------------------------------||
|----------------------------------------------------||
|-4----7--5b5.5-----------7b9-7-7b8-7b9==(7)r-0------||
|---------------7-(7)-x-x-----------------------0----||
|-----------------------------------------------0----||
|----------------------------------------------------||
|
| S   +S  S     S +H.
|----------------------------------------------------||
|----------------------------------------------------||
|---------------2-(2)--------------------------------||
|---------2-----2-(2)--------------------------------||
|---------0------------------------------------------||
|-3b5-(3)--------------------------------------------||


 Intro 2
  N.C.
            ~~~~~~                        ~~~~~~
  S S S S E E +E  S S S S S S   S S S S E E +E  S S S S e
|-----------------------------|-----------------------------|
|-----------------------------|-----------------------------|
|---------3-------------3-----|---------3-------------------|
|-------3-3-5-(5)-5-3-5-3-----|-------3-3-5-(5)-5-3---------|
|-3-4-5---------------------0-|-3-4-5---------------5-3-----|
|-----------------------------|-------------------------6b8-|
|
|           ~~~~~~                        ~~~~~~
| S S S S E E +E  S S S S S S   S S S S E E +E  S S S S e
|-----------------------------|-----------------------------|
|-----------------------------|-----------------------------|
|---------3-------------3-----|---------3-------------------|
|-------3-3-5-(5)-5-3-5-3-----|-------3-3-5-(5)-5-3---------|
|-3-4-5---------------------0-|-3-4-5---------------5-3-----|
|-----------------------------|-------------------------6b8-|


            ~~~~~~
  S S S S E E +E  S S S S S S
|------------------------------|
|------------------------------|
|---------3-------------3------|
|-------3-3-5-(5)-5-3-5-3------|
|-3-4-5---------------------0--|
|------------------------------|
|
|           ~~~~~~
| S S S S E E +E  S S S S S S
|------------------------------|
|------------------------------|
|---------3-------------3------|
|-------3-3-5-(5)-5-3-5-3------|
|-3-4-5---------------------0--|
|------------------------------|


                                  1st & 2nd Verses
                             Bb5   C
  Gtr III
  W                                 H                     E.    S S  S S  S
|------------------------------||-------------------------------------------|
|------------------------------||o---------------------------------------11-|
|------------------------------||-------------------------------7-8--7-9----|
|------------------------------||-------------------------------------------|
|------------------------------||o------------------------------------------|
|------------------------------||-------------------------------------------|
|
| Gtr I
|           ~~~~~~
| S S S S E E +E  S S E.     S      S  S  S S S  S  S  S  E   S S S  S S  S
|------------------------------||-------------------------------------------|
|------------------------------||o------------------------------------------|
|---------3------------------8h||===9----10---8--9-----------10---8--9------|
|-------3-3-5-(5)-5-3--------8h||==10----10---8-10----10-----10---8-10------|
|-3-4-5------------------------||o----10-----------10-10-10--------------10-|
|------------------------------||------8------------------8---------------8-|
|
| Gtr II
|           ~~~~~~
| S S S S E E +E  S S S  S S S      S  S  S S S  S  S  S  E   S S S  S S  S
|------------------------------||-------------------------------------------|
|------------------------------||o------------------------------------------|
|---------3--------------------||--------10---8--9-----------10---8--9------|
|-------3-3-5-(5)-5-3----------||--------10---8-10----10-----10---8-10------|
|-3-4-5---------------5--3---8s||o=10-10-----------10-10-10--------------10-|
|--------------------------6-6s||===8--8------------------8---------------8-|


                          Bb5
   ~~
   Q         Q          H
|------------------------------------------|
|--8---------------------------------------|
|------------------------------------------|
|------------------------------------------|
|------------------------------------------|
|------------------------------------------|
|
|  S  S  S S S  S  S  S S S S S +S  S S S
|------------------------------------------|
|------------------------------------------|
|-------10---8--9--------------------------|
|-------10---8-10----10---8---8-(8)-8-8-8--|
|-10-10-----------10-10---8---8-(8)-8-8-8--|
|--8--8------------8--8---6---6-(6)-6-6-6--|
|
|  S  S  S S S  S  S  S S S S S +S  S S S
|------------------------------------------|
|------------------------------------------|
|-------10---8--9--------------------------|
|-------10---8-10----10---8---8-(8)-8-8-8--|
|-10-10-----------10-10---8---8-(8)-8-8-8--|
|--8--8------------8--8---6---6-(6)-6-6-6--|


  N.C.                                                     Bb5
  W                             W
|-----------------------------|------------------------------|
|-----------------------------|------------------------------|
|-----------------------------|------------------------------|
|-----------------------------|------------------------------|
|-----------------------------|------------------------------|
|-----------------------------|------------------------------|
|
|           ~~~~~~                        ~~~~~~
| S S S S E E +E  S S S S S S   S S S S E E +E  S S E.     S
|-----------------------------|------------------------------|
|-----------------------------|------------------------------|
|---------3-------------3-----|---------3------------------8h|
|-------3-3-5-(5)-5-3-5-3-----|-------3-3-5-(5)-5-3--------8h|
|-3-4-5---------------------0-|-3-4-5------------------------|
|-----------------------------|------------------------------|
|
|           ~~~~~~                        ~~~~~~
| S S S S E E +E  S S S S S S   S S S S E E +E  S S S  S S S
|-----------------------------|------------------------------|
|-----------------------------|------------------------------|
|---------3-------------3-----|---------3--------------------|
|-------3-3-5-(5)-5-3-5-3-----|-------3-3-5-(5)-5-3----------|
|-3-4-5---------------------0-|-3-4-5---------------5--3---8s|
|-----------------------------|--------------------------6-6s|


  C
                                ~~~~~~~~~~~~
   H                     E.     S      +S   +S  S  S
|-----------------------------------------------------|
|------------------------------10b11==(10)r(10)p8-----|
|--------------------------------------------------9--|
|-----------------------------------------------------|
|-----------------------------------------------------|
|-----------------------------------------------------|
|
|  S  S  S S S  S  S  S  E   S  S       S    S  S  S
|-----------------------------------------------------|
|-----------------------------------------------------|
|--9----10---8--9-----------10----------8----9--------|
|-10----10---8-10----10-----10----------8---10--------|
|----10-----------10-10-10------------------------10--|
|-----8------------------8-------------------------8--|
|
|  S  S  S S S  S  S  S  E   S  S       S    S  S  S
|-----------------------------------------------------|
|-----------------------------------------------------|
|-------10---8--9-----------10----------8----9--------|
|-------10---8-10----10-----10----------8---10--------|
|-10-10-----------10-10-10------------------------10--|
|--8--8------------------8-------------------------8--|


                             Bb5
   E     E      Q          H
|--------------------------------------------|
|--8----10b11--------------------------------|
|--------------------------------------------|
|--------------------------------------------|
|--------------------------------------------|
|--------------------------------------------|
|
|  S  S  S    S S  S  S  S S S S S +S  S S S
|--------------------------------------------|
|--------------------------------------------|
|-------10------8--9-------------------------|
|-------10------8-10----10---8---8-(8)-8-8-8-|
|-10-10--------------10-10---8---8-(8)-8-8-8-|
|--8--8---------------8--8---6---6-(6)-6-6-6-|
|
|  S  S  S    S S  S  S  S S S S S +S  S S S
|--------------------------------------------|
|--------------------------------------------|
|-------10------8--9-------------------------|
|-------10------8-10----10---8---8-(8)-8-8-8-|
|-10-10--------------10-10---8---8-(8)-8-8-8-|
|--8--8---------------8--8---6---6-(6)-6-6-6-|


  N.C.
  W                             W
|-----------------------------|-----------------------------|
|-----------------------------|-----------------------------|
|-----------------------------|-----------------------------|
|-----------------------------|-----------------------------|
|-----------------------------|-----------------------------|
|-----------------------------|-----------------------------|
|
|           ~~~~~~                        ~~~~~~
| S S S S E E +E  S S S S S S   S S S S E E +E  S S Q
|-----------------------------|-----------------------------|
|-----------------------------|-----------------------------|
|---------3-------------3-----|---------3-------------------|
|-------3-3-5-(5)-5-3-5-3-----|-------3-3-5-(5)-5-3---------|
|-3-4-5---------------------0-|-3-4-5-----------------------|
|-----------------------------|-----------------------------|
|
|           ~~~~~~                        ~~~~~~
| S S S S E E +E  S S S S S S   S S S S E E +E  S S S S S S
|-----------------------------|-----------------------------|
|-----------------------------|-----------------------------|
|---------3-------------3-----|---------3-------------------|
|-------3-3-5-(5)-5-3-5-3-----|-------3-3-5-(5)-5-3---------|
|-3-4-5---------------------0-|-3-4-5---------------5-3---8-|
|-----------------------------|-------------------------6-6-|


  D5
                                     ~~~~~~~
   H          S   E       S  S  +S   E
|------------------------17----------------|
|----------------17b19------17-(17)-15-----|
|------------------------------------------|
|------------------------------------------|
|------------------------------------------|
|------------------------------------------|
|
|  E E S E S +S   S    S  S  S   S   S   S
|------------------------------------------|
|------------------------------------------|
|-/7-7---5-7-(7)--7------------------------|
|-/7-7-9-5-7-(7)--7----9--7--7---7---9---7-|
|-/5-5-5---5-(5)--5----5--5--5---5---5---5-|
|------------------------------------------|
|
|  H         +Q.                    +E
|------------------------------------------|
|------------------------------------------|
|------------------------------------------|
|-/7---------(7)--------------------(7)\---|
|-/5---------(5)--------------------(5)\---|
|------------------------------------------|


                                                                         Bb5   B5
 ~~~~~~~                              ~~             ~~~~~
   +E   E Q      S   E       S  S  S  E      E      +E   Q      H
|-----------------------------------------|--------------------------------------|
|-(15)\-------------17b18---15-17----15---|-17b19==(17)r-------------------------|
|---------------------------------16------|--------------------------------------|
|-----------------------------------------|--------------------------------------|
|-----------------------------------------|--------------------------------------|
|-----------------------------------------|--------------------------------------|
|
|   E   E E S S +S   S    S  S  S  S  S S    E       E   E S S +S  S S S S S S S
|-----------------------------------------|--------------------------------------|
|-----------------------------------------|--------------------------------------|
|---7---7-7-------------------------------|----------7---7---------------------5-|
|---7---7-7-9-7-(7)--7----9--7--7--7--9-7-|----------7---7-9-7-(7)-7-9-7-7-7-7-5-|
|---5---5-5-5-5-(5)--5----5--5--5--5--5-5-|----------5---5-5-5-(5)-5-5-5-5-5-5---|
|-----------------------------------------|--------------------------------------|
|
|   H           +Q              S  S  S S    H                 +Q        S S S S
|-----------------------------------------|--------------------------------------|
|-----------------------------------------|--------------------------------------|
|-----------------------------------------|--------------------------------------|
|--/7-----------(7)-----------------------|-/7-----------------(7)-------3-3-3-4-|
|--/5-----------(5)-------------5--0--3-0-|-/5-----------------(5)-------1-1-1-2-|
|-----------------------------------------|--------------------------------------|


  C5                  Bb5
  Gtr I
  S S S S S S S S S S S  S S S S S
|----------------------------------|
|----------------------------------|
|-5-5-5-5-5-5-5-5-5-3-3--3-3-3-3-0-|
|-5-5-5-5-5-5-5-5-5-3-3--3-3-3-3-0-|
|----------------------------------|
|----------------------------------|
|
| Gtr II
| H               E   Q.
|----------------------------------|
|----------------------------------|
|----------------------------------|
|-5---------------5---3------------|
|-3---------------3---1------------|
|----------------------------------|


  N.C.
            ~~~~~~                        ~~~~~~
  S S S S E E +E  S S S S S S   S S S S E E +E  S S S S e
|-----------------------------|------------------------------|
|-----------------------------|------------------------------|
|---------3-------------3-----|---------3--------------------|
|-------3-3-5-(5)-5-3-5-3-----|-------3-3-5-(5)-5-3----------|
|-3-4-5---------------------0-|-3-4-5---------------5-3------|
|-----------------------------|-------------------------6b8--|
|
|           ~~~~~~                        ~~~~~~
| S S S S E E +E  S S S S S S   S S S S E E +E  S S S S e
|-----------------------------|------------------------------|
|-----------------------------|------------------------------|
|---------3-------------3-----|---------3--------------------|
|-------3-3-5-(5)-5-3-5-3-----|-------3-3-5-(5)-5-3----------|
|-3-4-5---------------------0-|-3-4-5---------------5-3------|
|-----------------------------|-------------------------6b8--|


  1.
                                                                             Bb5
            ~~~~~~
  S S S S E E +E  S S S S S S   +S  S     S    S     +S  +S  E +E  S S S S S S
|-----------------------------|--------------------------------------------------||
|---------------------------6-|-(6)-6b6.5-6pb8-6pb8==(6)r(6)--------------------o||
|---------3-------------3-----|------------------------------3-(3)---------------||
|-------3-3-5-(5)-5-3-5-3-----|------------------------------------5-3-----------||
|-3-4-5-----------------------|----------------------------------------5p3---8/-o||
|-----------------------------|--------------------------------------------6-6/--||
|
|           ~~~~~~                                           ~~~~~~
| S S S S E E +E  S S S S S S    S  S     S    S      E      E +E  S S S S S S
|-----------------------------|--------------------------------------------------||
|-----------------------------|-------------------------------------------------o||
|---------3-------------3-----|-----------------------3--------------------------||
|-------3-3-5-(5)-5-3-5-3-----|----------------3------3------5-(5)-5-3-----------||
|-3-4-5---------------------0-|--3--4-----5----------------------------5-3---8/-o||
|-----------------------------|--------------------------------------------6-6/--||


 2.
  N.C.
            ~~~~~~
  S S S S E E +E  S S S S S S
|-------------------------------|
|-------------------------------|
|---------3-------------3-------|
|-------3-3-5-(5)-5-3-5-3-------|
|-3-4-5---------------------0---|
|-------------------------------|
|
|           ~~~~~~
| S S S S E E +E  S S S S S S
|-------------------------------|
|-------------------------------|
|---------3-------------3-------|
|-------3-3-5-(5)-5-3-5-3-------|
|-3-4-5---------------------0---|
|-------------------------------|


                                Guitar Solo
                                 C
  Gtr III
                                                                           ~~~~~~~
  W                               Q.                 E         +S    S  S  S  +E.       S
|-----------------------------||-13b15--------------13b15=====(13)r-13-10-----------------|
|-----------------------------||------------------------------------------11-(11)---------|
|-----------------------------||----------------------------------------------------------|
|-----------------------------||----------------------------------------------------------|
|-----------------------------||----------------------------------------------------------|
|-----------------------------||----------------------------------------------------------|
|
| Gtr I
|           ~~~~~~
| S S S S E E +E  S S S S e       S     S  S S S  S  S      S   E       S  S   S   S S  S
|-----------------------------||----------------------------------------------------------|
|-----------------------------||----------------------------------------------------------|
|---------3-------------------||--9-------10---8--9--------------------10------8---9------|
|-------3-3-5-(5)-5-3---------||-10-------10---8-10--------10----------10------8--10------|
|-3-4-5---------------5-3-----||-------10-----------10-----10--10----------------------10-|
|-------------------------6b8-||--------8-----------------------8-----------------------8-|
|
| Gtr II
|           ~~~~~~
| S S S S E E +E  S S S S e       S     S  S S S  S  S      S   E       S  S   S   S S  S
|-----------------------------||----------------------------------------------------------|
|-----------------------------||----------------------------------------------------------|
|---------3-------------------||----------10---8--9--------------------10------8---9------|
|-------3-3-5-(5)-5-3---------||----------10---8-10--------10----------10------8--10------|
|-3-4-5---------------5-3-----||-10----10-----------10-----10--10----------------------10-|
|-------------------------6b8-||--8-----8-----------------------8-----------------------8-|


                                              Bb5
                                                        ~~~
   S  S     S  S      +S    S  S  S      +S    S  S  S  Q
|----13b15----13b15==(13)r-13-10----------------------------------|
|--------------------------------13b15==(13)r-11-13----11---------|
|---------------------------------------------------12------------|
|-----------------------------------------------------------------|
|-----------------------------------------------------------------|
|-----------------------------------------------------------------|
|
|  S  S     S  S       S    S  S  S       S    S  S  S +S  S S S
|-----------------------------------------------------------------|
|-----------------------------------------------------------------|
|----------10----------8----9-------------------------------------|
|----------10----------8---10----10------------8-----8-(8)-8-8-8--|
|-10-10-----------------------10-10------------8-----8-(8)-8-8-8--|
|--8--8------------------------8--8------------6-----6-(6)-6-6-6--|
|
|  S  S     S  S       S    S  S  S       S    S  S  S +S  S S S
|-----------------------------------------------------------------|
|-----------------------------------------------------------------|
|----------10----------8----9-------------------------------------|
|----------10----------8---10----10------------8-----8-(8)-8-8-8--|
|-10-10-----------------------10-10------------8-----8-(8)-8-8-8--|
|--8--8------------------------8--8------------6-----6-(6)-6-6-6--|


  N.C.                                                         Bb5
    ~~~~~
   +E     E   Q    H                W
|---------------------------------|------------------------------|
|-(11)\---------------------------|------------------------------|
|---------------------------------|------------------------------|
|---------------------------------|------------------------------|
|---------------------------------|------------------------------|
|---------------------------------|------------------------------|
|
|               ~~~~~~                        ~~~~~~
|   S   S S S E E +E  S S S S S S   S S S S E E +E  S S E.     S
|---------------------------------|------------------------------|
|---------------------------------|------------------------------|
|-------------3-------------3-----|---------3------------------8h|
|-----------3-3-5-(5)-5-3-5-3-----|-------3-3-5-(5)-5-3--------8h|
|---3---4-5---------------------0-|-3-4-5------------------------|
|---------------------------------|------------------------------|
|
|               ~~~~~~                        ~~~~~~
|   S   S S S E E +E  S S S S S S   S S S S E E +E  S S S  S S S
|---------------------------------|------------------------------|
|---------------------------------|------------------------------|
|-------------3-------------3-----|---------3--------------------|
|-----------3-3-5-(5)-5-3-5-3-----|-------3-3-5-(5)-5-3----------|
|---3---4-5---------------------0-|-3-4-5---------------5--3---8s|
|---------------------------------|--------------------------6-6s|


  C
                                                       ~~~~~~~
   E        S  S      +S    S  E        S  S      +S   S  +S   S S  S
|----------13--------------13----------13-----------------------------|
|-13b15-------13b15==(13)r----13b15-------13pb15r(13)-11-(11)-13---11-|
|---------------------------------------------------------------------|
|---------------------------------------------------------------------|
|---------------------------------------------------------------------|
|---------------------------------------------------------------------|
|
|  S     S  S  S       S    S  S     S  E          S   S   S   S S  S
|---------------------------------------------------------------------|
|---------------------------------------------------------------------|
|--9-------10----------8----9---------------------10-------8---9------|
|-10-------10----------8---10-------10------------10-------8--10------|
|-------10--------------------10----10-10--------------------------10-|
|--------8------------------------------8---------------------------8-|
|
|  S     S  S  S       S    S  S     S  E          S   S   S   S S  S
|---------------------------------------------------------------------|
|---------------------------------------------------------------------|
|----------10----------8----9---------------------10-------8---9------|
|----------10----------8---10-------10------------10-------8--10------|
|-10----10--------------------10----10-10--------------------------10-|
|--8-----8------------------------------8---------------------------8-|


                                          Bb5
                                                 ~~~~~~~~~~~~
   E        S  S      +E      S     +S  S  S  S  S      +E.      S
|----------13-----------------------------------13b15==(13)r-------|
|-13b15-------13pb15r(13)----13b15-(13)---13-11--------------------|
|------------------------------------------------------------------|
|------------------------------------------------------------------|
|------------------------------------------------------------------|
|------------------------------------------------------------------|
|
|  S     S  S  S       S   S  S      S  S  S  S  S      +S   S S S
|------------------------------------------------------------------|
|------------------------------------------------------------------|
|----------10----------8---9---------------------------------------|
|----------10----------8--10--------10-----8-----8------(8)--8-8-8-|
|-10----10-------------------10-----10-----8-----8------(8)--8-8-8-|
|--8-----8--------------------8------8-----6-----6------(6)--6-6-6-|
|
|  S     S  S  S       S   S  S      S  S  S  S  S      +S   S S S
|------------------------------------------------------------------|
|------------------------------------------------------------------|
|----------10----------8---9---------------------------------------|
|----------10----------8--10--------10-----8-----8------(8)--8-8-8-|
|-10----10-------------------10-----10-----8-----8------(8)--8-8-8-|
|--8-----8--------------------8------8-----6-----6------(6)--6-6-6-|


  N.C.
  W                             W
|-----------------------------|-----------------------------|
|-----------------------------|-----------------------------|
|-----------------------------|-----------------------------|
|-----------------------------|-----------------------------|
|-----------------------------|-----------------------------|
|-----------------------------|-----------------------------|
|
|           ~~~~~~                        ~~~~~~
| S S S S E E +E  S S S S S S   S S S S E E +E  S S Q
|-----------------------------|-----------------------------|
|-----------------------------|-----------------------------|
|---------3-------------3-----|---------3-------------------|
|-------3-3-5-(5)-5-3-5-3-----|-------3-3-5-(5)-5-3---------|
|-3-4-5---------------------0-|-3-4-5-----------------------|
|-----------------------------|-----------------------------|
|
|           ~~~~~~                        ~~~~~~
| S S S S E E +E  S S S S S S   S S S S E E +E  S S S S S S
|-----------------------------|-----------------------------|
|-----------------------------|-----------------------------|
|---------3-------------3-----|---------3-------------------|
|-------3-3-5-(5)-5-3-5-3-----|-------3-3-5-(5)-5-3---------|
|-3-4-5---------------------0-|-3-4-5---------------5-3---8-|
|-----------------------------|-------------------------6-6-|


  D5
   E     E     E       S      S      S   S    S  S  E    s    s
|---------------------------------------------------------------|
|-17b19-17b19-17b19---17pb18-17pb19-----17b19---17-15-----------|
|-------------------------------------------------------16---14-|
|---------------------------------------------------------------|
|---------------------------------------------------------------|
|---------------------------------------------------------------|
|
|  E     E     S    E         S     +S   S    S  S  S S  S    S
|---------------------------------------------------------------|
|---------------------------------------------------------------|
|-/7-----7----------5---------7-----(7)--7----------------------|
|-/7-----7-----9----5---------7-----(7)--7----9--7--7-7--9----7-|
|-/5-----5-----5--------------5-----(5)--5----5--5--5-5--5----5-|
|---------------------------------------------------------------|
|
|  H                                +Q.                 +E
|---------------------------------------------------------------|
|---------------------------------------------------------------|
|---------------------------------------------------------------|
|-/7--------------------------------(7)-----------------(7)\----|
|-/5--------------------------------(5)-----------------(5)\----|
|---------------------------------------------------------------|


                                                                                                      Bb5      B5
                                       ~~~~~~~                                                          ~~~~
   S  S S  S  S  S  S  S     +E     S  S  +E    E      S  S  S  S     +S   E    S      +E     S  S     +E    E
|---------------------------------------------------|---------------------17--------------------17b19-(17)---------|
|------------------15-17b18-(17)---17-15-(15)-------|-------15-17b19-(17)------17pb19r(17)---15--------------------|
|----14---14-14-16----------------------------------|-14-16--------------------------------------------------------|
|---------------------------------------------------|--------------------------------------------------------------|
|---------------------------------------------------|--------------------------------------------------------------|
|---------------------------------------------------|--------------------------------------------------------------|
|
|  E    E     E     S  S     +S  S  S  S   S  S S S    E     E         E     S  S      +S  S  S  S      S  S S S
|---------------------------------------------------|--------------------------------------------------------------|
|---------------------------------------------------|--------------------------------------------------------------|
|--7----7-----7-------------------------------------|--------7---------7---------------------------------------5---|
|--7----7-----7-----9--7-----(7)-7--9--7---7--7-9-7-|--------7---------7-----9--7------(7)-7--9--7------7--7-7-5---|
|--5----5-----5-----5--5-----(5)-5--5--5---5--5-5-5-|--------5---------5-----5--5------(5)-5--5--5------5--5-5-----|
|---------------------------------------------------|--------------------------------------------------------------|
|
|  H                         +Q            S  S S S    H                               +Q               S  S S S
|---------------------------------------------------|--------------------------------------------------------------|
|---------------------------------------------------|--------------------------------------------------------------|
|---------------------------------------------------|--------------------------------------------------------------|
|-/7-------------------------(7)--------------------|-/7-------------------------------(7)--------------3--3-3-4---|
|-/5-------------------------(5)-----------5--0-3-0-|-/5-------------------------------(5)--------------1--1-1-2---|
|---------------------------------------------------|--------------------------------------------------------------|


  C5                        Bb5
                ~~~~~~~~~~       ~~~~~~~~~
  S S S S S S S S    +E     S  S E   +E
|-------6-------6b7==(6)r-------------------|
|---5-8---8-6-8-------------8--6-8---(8)\---|
|-7-----------------------------------------|
|-------------------------------------------|
|-------------------------------------------|
|-------------------------------------------|
|
| S S S S S S S S     S   S S  S S S  S   S
|-------------------------------------------|
|-------------------------------------------|
|-5-5-5-5-5-5-5-5-----5---3-3--3-3-3--3---0-|
|-5-5-5-5-5-5-5-5-----5---3-3--3-3-3--3---0-|
|-------------------------------------------|
|-------------------------------------------|
|
| H                   E     Q.
|-------------------------------------------|
|-------------------------------------------|
|-------------------------------------------|
|-5-------------------5-----3---------------|
|-3-------------------3-----1---------------|
|-------------------------------------------|


  N.C.
  W                             W
|-----------------------------|------------------------------|
|-----------------------------|------------------------------|
|-----------------------------|------------------------------|
|-----------------------------|------------------------------|
|-----------------------------|------------------------------|
|-----------------------------|------------------------------|
|
|           ~~~~~~                        ~~~~~~
| S S S S E E +E  S S S S S S   S S S S E E +E  S S S S e
|-----------------------------|------------------------------|
|-----------------------------|------------------------------|
|---------3-------------3-----|---------3--------------------|
|-------3-3-5-(5)-5-3-5-3-----|-------3-3-5-(5)-5-3----------|
|-3-4-5---------------------0-|-3-4-5---------------5-3------|
|-----------------------------|-------------------------6b8--|
|
|           ~~~~~~                        ~~~~~~
| S S S S E E +E  S S S S S S   S S S S E E +E  S S S S e
|-----------------------------|------------------------------|
|-----------------------------|------------------------------|
|---------3-------------3-----|---------3--------------------|
|-------3-3-5-(5)-5-3-5-3-----|-------3-3-5-(5)-5-3----------|
|-3-4-5---------------------0-|-3-4-5---------------5-3------|
|-----------------------------|-------------------------6b8--|


                                                           Bb5
  W                             W
|-----------------------------|------------------------------||
|-----------------------------|------------------------------||
|-----------------------------|------------------------------||
|-----------------------------|------------------------------||
|-----------------------------|------------------------------||
|-----------------------------|------------------------------||
|
|           ~~~~~~                        ~~~~~~
| S S S S E E +E  S S S S S S   S S S S E E +E  S S E.     S
|-----------------------------|------------------------------||
|-----------------------------|------------------------------||
|---------3-------------3-----|---------3------------------8h||
|-------3-3-5-(5)-5-3-5-3-----|-------3-3-5-(5)-5-3--------8h||
|-3-4-5---------------------0-|-3-4-5------------------------||
|-----------------------------|------------------------------||
|
|           ~~~~~~                        ~~~~~~
| S S S S E E +E  S S S S S S   S S S S E E +E  S S S  S S S
|-----------------------------|------------------------------||
|-----------------------------|------------------------------||
|---------3-------------3-----|---------3--------------------||
|-------3-3-5-(5)-5-3-5-3-----|-------3-3-5-(5)-5-3----------||
|-3-4-5---------------------0-|-3-4-5---------------5--3---8s||
|-----------------------------|--------------------------6-6s||


 3rd Verse
  C
   H                     E.     S     +E      S  S
|--------------------------------------------13-----|
|------------------------------13b15-(13)-------11--|
|---------------------------------------------------|
|---------------------------------------------------|
|---------------------------------------------------|
|---------------------------------------------------|
|
|  S  S  S S S  S  S  S  E   S  S      S   S  S  S
|---------------------------------------------------|
|---------------------------------------------------|
|--9----10---8--9-----------10---------8---9--------|
|-10----10---8-10----10-----10---------8--10--------|
|----10-----------10-10-10----------------------10--|
|-----8------------------8-----------------------8--|
|
|  S  S  S S S  S  S  S  E   S  S      S   S  S  S
|---------------------------------------------------|
|---------------------------------------------------|
|-------10---8--9-----------10---------8---9--------|
|-------10---8-10----10-----10---------8--10--------|
|-10-10-----------10-10-10----------------------10--|
|--8--8------------------8-----------------------8--|


                                  Bb5
   +S   E.       +S    E.       H
|-------------------------------------------------|
|-(11)--------------------------------------------|
|------12-------(12)\-----------------------------|
|-------------------------------------------------|
|-------------------------------------------------|
|-------------------------------------------------|
|
|   S   S   S S   S    S   S  S S S S S +S  S S S
|-------------------------------------------------|
|-------------------------------------------------|
|----------10-----8----9--------------------------|
|----------10-----8---10-----10---8---8-(8)-8-8-8-|
|--10--10-----------------10-10---8---8-(8)-8-8-8-|
|---8---8------------------8--8---6---6-(6)-6-6-6-|
|
|   S   S   S S   S    S   S  S S S S S +S  S S S
|-------------------------------------------------|
|-------------------------------------------------|
|----------10-----8----9--------------------------|
|----------10-----8---10-----10---8---8-(8)-8-8-8-|
|--10--10-----------------10-10---8---8-(8)-8-8-8-|
|---8---8------------------8--8---6---6-(6)-6-6-6-|


  N.C.                                                     Bb5
  W                             W
|-----------------------------|-------------------------------|
|-----------------------------|-------------------------------|
|-----------------------------|-------------------------------|
|-----------------------------|-------------------------------|
|-----------------------------|-------------------------------|
|-----------------------------|-------------------------------|
|
|           ~~~~~~                        ~~~~~~
| S S S S E E +E  S S S S S S   S S S S E E +E  S S E.     S
|-----------------------------|-------------------------------|
|-----------------------------|-------------------------------|
|---------3-------------3-----|---------3------------------8h=|
|-------3-3-5-(5)-5-3-5-3-----|-------3-3-5-(5)-5-3--------8h=|
|-3-4-5---------------------0-|-3-4-5-------------------------|
|-----------------------------|-------------------------------|
|
|           ~~~~~~                        ~~~~~~
| S S S S E E +E  S S S S S S   S S S S E E +E  S S S  S S S
|-----------------------------|-------------------------------|
|-----------------------------|-------------------------------|
|---------3-------------3-----|---------3---------------------|
|-------3-3-5-(5)-5-3-5-3-----|-------3-3-5-(5)-5-3-----------|
|-3-4-5---------------------0-|-3-4-5---------------5--3---8s=|
|-----------------------------|--------------------------6-6s=|


  C
   H                     Q       e        e
|-------------------------------------------------|
|-------------------------------18b20----18b20----|
|-------------------------------------------------|
|-------------------------------------------------|
|-------------------------------------------------|
|-------------------------------------------------|
|
|  S  S  S S S  S  S  S  E  S S  S     S  S     S
|-------------------------------------------------|
|-------------------------------------------------|
|--9----10---8--9----------10----8-----9----------|
|-10----10---8-10----10----10----8----10----------|
|----10-----------10-10-10---------------------10-|
|-----8------------------8----------------------8-|
|
|  S  S  S S S  S  S  S  E  S S  S     S  S     S
|-------------------------------------------------|
|-------------------------------------------------|
|-------10---8--9----------10----8-----9----------|
|-------10---8-10----10----10----8----10----------|
|-10-10-----------10-10-10---------------------10-|
|--8--8------------------8----------------------8-|


                              Bb5                     N.C.
   ~~~~~                                        ~~~~~~~~~~~~
   Q.                 E    E.      S     S   S  E      +E     E   Q    H
|---------------------------------------------------|----------------------------------|
|-18b20---------------------------18b20-----18------|----------------------------------|
|----------------------------------------------15---|-(15)\----------------------------|
|---------------------------------------------------|----------------------------------|
|---------------------------------------------------|----------------------------------|
|---------------------------------------------------|----------------------------------|
|
|                                                                   ~~~~~~
|  S     S  S S S  S  S  S S  S S  S    +S   S  S S     S   S S S E E +E  S S S S S S
|---------------------------------------------------|----------------------------------|
|---------------------------------------------------|----------------------------------|
|----------10---8--9--------------------------------|-------------3-------------3------|
|----------10---8-10----10----8----8----(8)--8--8-8-|-----------3-3-5-(5)-5-3-5-3------|
|-10----10-----------10-10----8----8----(8)--8--8-8-|---3---4-5---------------------0--|
|--8-----8------------8--8----6----6----(6)--6--6-6-|----------------------------------|
|
|                                                                   ~~~~~~
|  S     S  S S S  S  S  S S  S S  S    +S   S  S S     S   S S S E E +E  S S S S S S
|---------------------------------------------------|----------------------------------|
|---------------------------------------------------|----------------------------------|
|----------10---8--9--------------------------------|-------------3-------------3------|
|----------10---8-10----10----8----8----(8)--8--8-8-|-----------3-3-5-(5)-5-3-5-3------|
|-10----10-----------10-10----8----8----(8)--8--8-8-|---3---4-5---------------------0--|
|--8-----8------------8--8----6----6----(6)--6--6-6-|----------------------------------|


                                D5
                                                              ~~~~~~~
  W                              H          S   S S  S  S  S  E
|-----------------------------|-------------------------------------|
|-----------------------------|------------------------------15-----|
|-----------------------------|----------------14---14-14-16--------|
|-----------------------------|-------------------------------------|
|-----------------------------|-------------------------------------|
|-----------------------------|-------------------------------------|
|
|           ~~~~~~
| S S S S E E +E  S S Q          E E S E S +S   S S  S  S  S  S   S
|-----------------------------|-------------------------------------|
|-----------------------------|-------------------------------------|
|---------3-------------------|-/7-7---5-7-(7)--7-------------------|
|-------3-3-5-(5)-5-3---------|-/7-7-9-5-7-(7)--7-9--7--7--7--9---7-|
|-3-4-5-----------------------|-/5-5-5---5-(5)--5-5--5--5--5--5---5-|
|-----------------------------|-------------------------------------|
|
|           ~~~~~~
| S S S S E E +E  S S S S S S    H         +Q.               +E
|-----------------------------|-------------------------------------|
|-----------------------------|-------------------------------------|
|---------3-------------------|-------------------------------------|
|-------3-3-5-(5)-5-3---------|-/7---------(7)---------------(7)\---|
|-3-4-5---------------5-3---8-|-/5---------(5)---------------(5)\---|
|-------------------------6-6-|-------------------------------------|


 ~~~~~~~
   +Q     Q      S   S    S  s S  S      S  S
|---------------------------17----------------|
|-(15)\-------------17b19--------17pb19-17-15-|
|---------------------------------------------|
|---------------------------------------------|
|---------------------------------------------|
|---------------------------------------------|
|
|   E   E E S S +S   S    S  S S  S      S  S
|---------------------------------------------|
|---------------------------------------------|
|---7---7-7-----------------------------------|
|---7---7-7-9-7-(7)--7----9--7-7--7------9--7-|
|---5---5-5-5-5-(5)--5----5--5-5--5------5--5-|
|---------------------------------------------|
|
|   H           +Q             S  S      S  S
|---------------------------------------------|
|---------------------------------------------|
|---------------------------------------------|
|--/7-----------(7)---------------------------|
|--/5-----------(5)------------5--0------3--0-|
|---------------------------------------------|


                            Bb5      B5
   ~~~~~
   Q.       E    S   S S  S  S  S  S  S
|---------------------------------------|
|-17b19------------------------15\------|
|-------------------14---14h16----------|
|------------------------------------12h|
|---------------------------------------|
|---------------------------------------|
|
|  E    E E S S +S   S S  S  S  S  S  S
|---------------------------------------|
|---------------------------------------|
|-------7-7---------------------------5-|
|-------7-7-9-7-(7)--7-9--7--7--7--7--5-|
|-------5-5-5-5-(5)--5-5--5--5--5--5----|
|---------------------------------------|
|
|  H            +Q           S  S  S  S
|---------------------------------------|
|---------------------------------------|
|---------------------------------------|
|-/7------------(7)----------3--3--3--4-|
|-/5------------(5)----------1--1--1--2-|
|---------------------------------------|


                                                                    Outro
  C5                                       Bb5                       N.C.
      ~~~~~~~~~~~~~~~~
   S  E.         +E.       T  T      +E     +S   S  +E     +E        H            Q      E.      S
|-----------------------------------------------------------------||----------------------------13b15====|
|-----------------------------------------------------------------||-------------------------------------|
|-------------------------12h14b15==(14)r==(14)p12-(12)---(12)\---||-------------------------------------|
|-14-14b16======(14)r---------------------------------------------||-------------------------------------|
|-----------------------------------------------------------------||-------------------------------------|
|-----------------------------------------------------------------||-------------------------------------|
|
|                                                                              ~~~~~~
|  S  S     S S   S   S S  S          S  S   S   S   S  S   S   S    S S S S E E +E  S S S  S S  S
|-----------------------------------------------------------------||-------------------------------------|
|-----------------------------------------------------------------||-------------------------------------|
|--5--5-----5-5---5---5-5--5----------5--3---3---3---3--3---3---0-||---------3--------------3------------|
|--5--5-----5-5---5---5-5--5----------5--3---3---3---3--3---3---0-||-------3-3-5-(5)-5-3-5--3------------|
|-----------------------------------------------------------------||-3-4-5-----------------------0-------|
|-----------------------------------------------------------------||-------------------------------------|
|
|                                                                              ~~~~~~
|  H                                  E      Q.                      S S S S E E +E  S S S  S S  S
|-----------------------------------------------------------------||-------------------------------------|
|-----------------------------------------------------------------||-------------------------------------|
|-----------------------------------------------------------------||---------3--------------3------------|
|--5----------------------------------5------3--------------------||-------3-3-5-(5)-5-3-5--3------------|
|--3----------------------------------3------1--------------------||-3-4-5-----------------------0-------|
|-----------------------------------------------------------------||-------------------------------------|


                           ~~
   +S    S  S  S     S  S  E  e   e     S E      S
|-(13)r-13-10--------------------------------------|
|-------------13b14-13-11-11-----------------------|
|----------------------------12--10----------------|
|-------------------------------------\10-8\-------|
|--------------------------------------------------|
|--------------------------------------------------|
|
|                          ~~~~~~
|   S    S  S  S     E     E +E   S S   S S  e
|--------------------------------------------------|
|--------------------------------------------------|
|--------------------3-----------------------------|
|--------------3-----3-----5-(5)--5-3--------------|
|---3----4--5---------------------------5-3--------|
|--------------------------------------------6b8---|
|
|                          ~~~~~~
|   S    S  S  S     E     E +E   S S   S S  e
|--------------------------------------------------|
|--------------------------------------------------|
|--------------------3-----------------------------|
|--------------3-----3-----5-(5)--5-3--------------|
|---3----4--5---------------------------5-3--------|
|--------------------------------------------6b8---|


  H            S  S   S S S S     E     W
|-------------------------------------|------------------------------*|
|-------------------------------------|------------------------------*|
|-----------------5b6-5p3-5-3b3.5-----|------------------------------*|
|-------------------------------------|------------------------------*|
|-------------------------------------|------------------------------*|
|-------------------------------------|------------------------------*|
|
|           ~~~~~~                                ~~~~~~
| S S S S E E +E      S S S S     S S   S S S S E E +E  S S Q
|-------------------------------------|------------------------------*|
|-------------------------------------|------------------------------*|
|---------3-----------------3---------|---------3--------------------*|
|-------3-3-5-(5)-----5-3-5-3---------|-------3-3-5-(5)-5-3----------*|
|-3-4-5-----------------------------0-|-3-4-5------------------------*|
|-------------------------------------|------------------------------*|
|
|           ~~~~~~                                ~~~~~~
| S S S S E E +E      S S S S     S S   S S S S E E +E  S S S S S S
|-------------------------------------|------------------------------*|
|-------------------------------------|------------------------------*|
|---------3-----------------3---------|---------3--------------------*|
|-------3-3-5-(5)-----5-3-5-3---------|-------3-3-5-(5)-5-3----------*|
|-3-4-5-----------------------------0-|-3-4-5---------------5-3------*|
|-------------------------------------|-------------------------6-6--*|


Duration Legend
---------------
W - whole; H - half; Q - quarter; E - 8th; S - 16th; T - 32nd; X - 64th; a - acciaccatura
+ - note tied to previous; . - note dotted; .. - note double dotted
Uncapitalized letters represent notes that are staccato (1/2 duration)
Irregular groupings are notated above the duration line
Duration letters will always appear directly above the note/fret number it represents the
duration for.  Duration letters with no fret number below them represent rests.  Multi-
bar rests are notated in the form Wxn, where n is the number of bars to rest for.  Low
melody durations appear below the staff

Tablature Legend
----------------
 h   - hammer-on
 p   - pull-off
 b   - bend
 pb  - pre-bend
 r   - bend release (if no number after the r, then release immediately)
 /\  - slide into or out of (from/to "nowhere")
 s   - legato slide
 S   - shift slide
  - natural harmonic
[n]  - artificial harmonic
n(n) - tapped harmonic
 ~   - vibrato
 tr  - trill
 T   - tap
 TP  - trem. picking
 PM  - palm muting
\n/  - tremolo bar dip; n = amount to dip
 \n  - tremolo bar down
 n/  - tremolo bar up
/n\  - tremolo bar inverted dip
 =   - hold bend; also acts as connecting device for hammers/pulls
 <>  - volume swell (louder/softer)
 x   - on rhythm slash represents muted slash
 o   - on rhythm slash represents single note slash

Misc Legend
-----------
 |  - bar
||  - double bar
||o - repeat start
o|| - repeat end
*|  - double bar (ending)
 :  - bar (freetime)
 $  - Segno
 &  - Coda
Tempo markers -  = BPM(8/16=s8/s16), where s8 = swing 8ths, s16 = swing 16ths

            
            
Suggest correction
Creating personal tab
Creating personal tab
You can edit any tab online and save it as your Personal.

You can edit, replace or remove any tab part or add personal notes – all changes will be seen only by you.

Personal tabs can be accessed anytime from any device, even offline.
Learn more »
Give kudos to tab author, rate the tab!
1 2 3 4 5
comments
print report bad tab
guest
You may want to rate the tab now too:
select rating
Wanna post a correction for this tab? Suggest correction