Oops, an error
Loading. Please wait.

Contingency Theory Acoustic chords

16 views 1 this week
no commentswrite comment
1 2 3 4 5
3 more votes to show rating
add to favorites
×
Save as Personal and add changes to this tab that will be seen only by you. Learn more ›
×
You can save this tab as Personal to edit and correct it or add notes. All changes will be seen only by you. Learn more »
launch autoscroll
font size
0
reset
transpose
0
reset
simplify chords
display chords
guitar tuner
edit
Autoscroll
slow
fast
+/-
esc
set tempo
stop
Author
Strumming
There is no strumming pattern for this song yet. and get +5 IQ
NOTE: On the Em in the intro, on the last two beats, hammer down on the second fret of the high E, then the
third fret

Here's the acoustic: https://www.youtube.com/watch?v=f_k--SRYE54

At the end of the second chorus, if you want to add a little bit of the other guitarist, you can do this after
the D -
e|-2----7----5----3--------5----0--------------------------------|
B|-3--------------1-------------1--------------------------------|
G|-2--------------2-------------0--------------------------------|
D|----------------2-------------2--------------------------------|
A|------------------------------3--------------------------------|
E|---------------------------------------------------------------|

If you want the solo, and want to attempt to play it in between chords, this is it an octave down. It starts
from the open E you have on the last C of the chorus-
e|0--------------------------------7----5-3-10----7----5-7-3----10----7----5-7-3|
B|1------3---0-----------0----3-------------------------------------------------|
G|0-------------2--0--2---------------------------------------------------------|
D|2-----------------------------------------------------------------------------|
A|3-----------------------------------------------------------------------------|
E|------------------------------------------------------------------------------|



[Intro]
C Em x2

[Verse 1]
C      Em
  A ghost 
             C  Em
You come and go 
   C         Em
A black cloak 
   C  Em  D
Ooh
C                     Em
  A phantom since the womb 
C                          Em
  a dark cloud on the open sea 
C                     Em
   Where'd you run to now, 
C                  Em
  or did you fall asleep? 

[Chorus]
C                          D
  And I thought you'd come around 
                Am
But I fear it's too late 
            C        D6/9 C
I fear it's too late 
D6/9 C
D6/9 C

[Verse 2]
         Em
Your room 
                           C     Em
Don't you see it's growing cold? 
C        Em                         C   Em
  Excuses grow exceedingly more old 
C                       Em
  Now all you seem to know 
C                                  Em
  Is your beard filled with tobacco smoke 
C                     Em
  Now love disfigures me 
C                           Em
 to something I'm not recognizing 

[Chorus]
C                       D
 And I hoped you'd come around 
               Am
But I fear it's too late 
            C
I fear it's too late
C                       D
  I swore you'd be here now
                Am 
But I fear it's too late 
            C
I fear it's too late

[Solo]
Am  C  D  C  x2

[Chorus]
C                       D
 And I hoped you'd come around 
               Am
But I fear it's too late 
            C
I fear it's too late
C                              D
  I swore to god you'd be here now
                Am 
But I fear it's too late 
            C
I fear it's too late

            
            
Suggest correction
Creating personal tab
Creating personal tab
You can edit any tab online and save it as your Personal.

You can edit, replace or remove any tab part or add personal notes – all changes will be seen only by you.

Personal tabs can be accessed anytime from any device, even offline.
Learn more »
Give kudos to tab author, rate the tab!
1 2 3 4 5
comments
print report bad tab
guest
You may want to rate the tab now too:
select rating
Wanna post a correction for this tab? Suggest correction