Oops, an error
Loading. Please wait.

A Slow March To The Burial bass

version 1
version 1

Whole song

Interactive

145 views 1 this week
no commentswrite comment
1 2 3 4 5
3 more votes to show rating
add to favorites
×
Save as Personal and add changes to this tab that will be seen only by you. Learn more ›
×
You can save this tab as Personal to edit and correct it or add notes. All changes will be seen only by you. Learn more »
launch autoscroll
font size
0
reset
guitar tuner
edit
Autoscroll
slow
fast
+/-
esc
set tempo
stop
================================================================================
                    M O U R N F U L   C O N G R E G A T I O N

                                       -

               A   S L O W   M A R C H   T O   T H E   B U R I A L
================================================================================


                                  THE JUNE FROST
                       (c) Weird Truth Productions - 2009
                       http://www.mournfulcongregation.tk/


                               Tune Down Four Steps
                                    Ab Db Gb B

                                  Tempo = 70 BPM
                               Time Signature = 4/4



                          -----------------------------
                                 Transcribed by

                                 PADDY MCMULLAN
                           stinkypoohpants@yahoo.co.uk

                                   Version 1.0
                                1st November 2009
                             -----------------------

                             Tablature Symbols Used:


 (6/9)      -  Legato Slide (Blank space indicates length of slide)
 10\7       -  Shift Slide (i.e. Strike destination note upon arrival)
 ( )        -  Ghost Note/Tied Note/Implied Note
 |_3_|      -  Triplet Notes
 4b5        -  Bend
 4b6r4      -  bend then Release



================================================================================
Section 1: Play twice
================================================================================


||-------------------|-----------------------|--------------------|
||-------------------|-----------------------|--------------------|
||-------------------|-----------------------|--------------------|
||--5----------------|--5--------5  /  7  \  |--3------------3----|


|------------------------|--------------------|----------------------|
|------------------------|--------------------|----------------------|
|------------------------|-----------2--------|--3--3-----------3----|
|--(2b3r2)-0--(2 b3)--2--|--0-----------------|----------------------|


|---------------------|---------------------|-------------------|
|---------------------|---------------------|-------------------|
|---------------------|---------------5  /  |--7----------------|
|--3------------3  /  |--5------------------|-------------------|


|--------------------|-----------------------|-------------------------| |
|--------------------|-----------------------|-------------------------|*|
|--8------------8----|--10---------------- / |--12-----  \--5---3---2--|*|
|--------------------|-----------------------|-------------------------| |



================================================================================
Section 2: Play twice
================================================================================


||----------------------|----------------------|--------------------|
||----------------------|----------------------|--------------------|
||----------------------|----------------------|--------------------|
||--5--------(5  b6 r5)-|--3--------(3  b4 r3)-|--0--------0--------|


|-------------------|----------------------|----------------------|
|-------------------|----------------------|----------------------|
|-------------------|----------------------|----------------------|
|--0----------------|--5------5-7-8--------|--3------3-5-7--------|


|--------------------|-------------------| |
|--------------------|-------------------|*|
|--------------------|-------------------|*|
|--0--------0--------|--0----------------| |



================================================================================
Section 3: Play twice [ Tempo = 64 BPM ]
================================================================================


||----------------------|----------------------|----------------------|
||----------------------|----------------------|----------------------|
||----------------------|----------------------|----------------------|
||--0----0----0----0----|--1----1----1----1----|--0----0----0----0----|


|----------------------|----------------------|----------------------|
|----------------------|----------------------|----------------------|
|----------------------|----------------------|----------------------|
|--1----1----3----3----|--0----0----0----0----|--1----1----1----1----|

                                    |_3| |_3| |__3__|
|----------------------|-------------------------------| |
|----------------------|-------------------------------|*|
|----------------------|-------------------------------|*|
|--0----0----0----0----|--1----1----3--3-3-3--3--3--3--| |



================================================================================
Play Section 1 twice, but on the second repeat play only the first four bars
[ Tempo = 72 BPM ]
================================================================================

================================================================================
Section 4: Play twice [ Tempo = 60 BPM ]
================================================================================


||----------------------|-------------------|-------------------------|
||----------------------|-------------------|-------------------------|
||----------------------|-------------------|------------4------------|
||--3----6----5----6----|--2----------------|--3----6---------(5b6r5)-|


|-------------------| |
|-------------------|*|
|-------------------|*|
|--2----------------| |



================================================================================
Section 5: Play until fade [ Tempo = 56 BPM ]
================================================================================


||---------------------------|-------------------| |
||---------------------------|-------------------|*|
||---------(3b4r3)-1---------|-------------------|*|
||--1-------------------3----|--5----------------| |



================================================================================
End
================================================================================


Tab summary:        Section 1 x 2
                    Section 2 x 2
                    Section 3 x 2
                    Section 1 x 2
                    Section 4 x 2
                    Section 5 x Indefinitely

                    END

            
            
Suggest correction
Creating personal tab
Creating personal tab
You can edit any tab online and save it as your Personal.

You can edit, replace or remove any tab part or add personal notes – all changes will be seen only by you.

Personal tabs can be accessed anytime from any device, even offline.
Learn more »
Give kudos to tab author, rate the tab!
1 2 3 4 5
comments
print report bad tab
guest
You may want to rate the tab now too:
select rating
Wanna post a correction for this tab? Suggest correction