Oops, an error
Loading. Please wait.

Weeping tab

version 1
version 1

Whole song

Interactive

899 views 1 this week
no commentswrite comment
1 2 3 4 5
2 more votes to show rating
add to favorites
×
Save as Personal and add changes to this tab that will be seen only by you. Learn more ›
×
You can save this tab as Personal to edit and correct it or add notes. All changes will be seen only by you. Learn more »
launch autoscroll
font size
0
reset
how to read this tab
guitar tuner
edit
Autoscroll
slow
fast
+/-
esc
set tempo
stop
================================================================================
                    M O U R N F U L   C O N G R E G A T I O N

                                       -

                                 W E E P I N G
================================================================================


                          THE DAWNING OF MOURNFUL HYMNS
                       (c) Weird Truth Productions - 2002
                       http://www.mournfulcongregation.tk/


                               Tune Down Four Steps
                                 Ab Db Gb B Eb Ab

                                  Tempo = 58 BPM
                               Time Signature = 4/4



                          -----------------------------
                                 Transcribed by

                                 PADDY MCMULLAN
                           stinkypoohpants@yahoo.co.uk

                                   Version 1.0
                                4th November 2008
                             -----------------------

                             Tablature Symbols Used:


 p          -  Pull-Off
 h          -  Hammer-On
 (6/9)      -  Legato Slide (Blank space indicates length of slide)
 10\7       -  Shift Slide
 ( )        -  Ghost Note/Tied Note/Implied Note
 REST       -  Rest (Sustain rest for duration of blank space)
 |_3_|      -  Triplet Notes



================================================================================
Riff 1a: Guitar 1 with Clean Tone (Play once through)
================================================================================


* Let notes ring wherever possible *


    |_____3_____|    |_____3_____|       |____3___|    |___3____|
||------------------------------------|------------------------------|
||--8----10----11----10----8----------|--8--------8----8--------8----|
||--7----------------10---------10----|--9-------------8-------------|
||------------------------------------|------------------------------|
||------------------------------------|------------------------------|
||------------------------------------|------------------------------|


   |_____3_____|    |_____3_____|       |____3___|    |____3_____|
|------------------------------------|--------------------------------|
|--8----10----11----10----8----------|--8--------8----11--------11----|
|--7----------------10---------10----|--9-------------8---------------|
|------------------------------------|--x-----------------------------|
|------------------------------------|--------------------------------|
|------------------------------------|--------------------------------|


   |_____3_____|    |______3_____|       |____3___|
|-------------------------------------|-------------------------|
|--8----10----11----10-----8----------|--8--------8----8--------|
|--7----------7-----10-----10---10----|--9-------------8--------|
|-------------------------------------|-------------------------|
|-------------------------------------|-------------------------|
|-------------------------------------|-------------------------|


   |_____3_____|    |_____3_____|       |__3__|  |____3_____|
|------------------------------------|---------------------------|
|--8----10----11----10----8----------|--8--------11--------11----|
|--7----------------10---------10----|--9--------8---------------|
|------------------------------------|---------------------------|
|------------------------------------|---------------------------|
|------------------------------------|---------------------------|


   |___3_____|    |______3_____|       |___3____|    |____3___|
|-----------------------------------|--0---------------------------|
|--8--------11----10-----8----------|--8--------8----8--------8----|
|--7--------------10----------10----|--9-------------8-------------|
|-----------------------------------|------------------------------|
|-----------------------------------|------------------------------|
|-----------------------------------|------------------------------|


   |_____3_____|    |_____3_____|       |___3____|    |____3_____|
|------------------------------------|--------------------------------||
|--8----10----11----10----8----------|--8--------8----11--------11----||
|--7----------7-----10---------10----|--9-------------8---------------||
|------------------------------------|--------------------------------||
|------------------------------------|--------------------------------||
|------------------------------------|--------------------------------||



================================================================================
Riff 1b: Guitar 2 with Clean Tone (Play once through)
================================================================================


Rest for 4 bars


* Let notes ring wherever possible *


||--------------------------------------|-------0------------------------|
||--8----10----8----------------10-  \--|--8---------8----8----6----8----|
||--7----------7----10----10------------|--5-----------------------------|
||--------------------------------------|--------------------------------|
||--------------------------------------|--------------------------------|
||--------------------------------------|--------------------------------|


|--------------------------------------|-------0------------------------|
|--8----10----8----10----11----10-  \--|--8---------8----8----6----8----|
|--7----------7----10------------------|--5-----------------------------|
|--------------------------------------|--------------------------------|
|--------------------------------------|--------------------------------|
|--------------------------------------|--------------------------------|


|--------------------------------------|-------0--------------------------|
|--8----10----8----------11----10-  \--|--8---------8----8----6-----8-----|
|--7----------7----10------------------|--5--------------5---(5  /  7)----|
|--------------------------------------|----------------------------------|
|--------------------------------------|----------------------------------|
|--------------------------------------|----------------------------------|



|----------------------------------------|-------0------------------------||
|--8----10----8------10----11----10-  \--|--8---------8----8----6----8----||
|--7----------7--  / 10------------------|--5-----------------------------||
|----------------------------------------|--------------------------------||
|----------------------------------------|--------------------------------||
|----------------------------------------|--------------------------------||



================================================================================
Riff 2a: Guitar 1 (Play 8 times) [ Tempo = 74 BPM ]
================================================================================


* Let notes ring wherever possible *


    |____3____|    |____3____|       |____3____|    |______3____|
||-----------------0--------------|-----------------0----0h3----2----| |
||-------1----3---------3----1----|-------1----3---------------------| |
||--------------------------------|----------------------------------|*|
||--------------------------------|----------------------------------|*|
||--0-----------------------------|--3-------------------------------| |
||--------------------------------|----------------------------------| |



On the last bar of the last repeat, from note 4, the tempo is 58 BPM.  Check the
new tempo for Riff 3, as it will change immediately.



================================================================================
Riff 2b: Guitar 2 (Play once through)
================================================================================


Rest for 3 bars


             |_______3______|      |__3__|
||----------------------8 h 10--|--(10/12)----------|
||--R--          -10------------|-------------------|
||--E--         ----------------|-------------------|
||--S--         ----------------|-------------------|
||--T--         ----------------|-------------------|
||------------------------------|-------------------|


            |_____3_____|
|--(12)-----------8----12----|--10----------------|
|-----------10---------------|--------------------|
|----------------------------|--------------------|
|----------------------------|--------------------|
|----------------------------|--------------------|
|----------------------------|--------------------|

            |_____3_______|       
|--(10)--------------8 h 10--|--(10/12)----------|
|--------------10------------|-------------------|
|----------------------------|-------------------|
|----------------------------|-------------------|
|----------------------------|-------------------|
|----------------------------|-------------------|


            |_____3_____|
|--(12)-----------8----12----|--10----------------|
|-----------10---------------|--------------------|
|----------------------------|--------------------|
|----------------------------|--------------------|
|----------------------------|--------------------|
|----------------------------|--------------------|


                   |___3___|
|--(10)-----10-----10 p 8p 7------|-------------------------|
|----------------------------8----|--(8/10)-----------------|
|---------------------------------|-------------------------|
|---------------------------------|-------------------------|
|---------------------------------|-------------------------|
|---------------------------------|-------------------------|

                 |___3___|
|----------------10 p 8p 7------|-------------------------|
|--(10)--------------------8----|--(8/10)-----------------|
|-------------------------------|-------------------------|
|-------------------------------|-------------------------|
|-------------------------------|-------------------------|
|-------------------------------|-------------------------|


|-------------------||
|--(10)-------------||
|-------------------||
|-------------------||
|-------------------||
|-------------------||



================================================================================
Riff 3a: Guitar 1 (Play once through)
================================================================================


The first 8 bars are all you really need, but if you want to match the track
note for note the variations are outlined below:


||------------0-----0-----|---------------0-----------|
||-------0-------1-----1--|-(1)----0 h 1-----1-----0--|
||------------------------|-----2---------------2-----|
||------------------------|---------------------------|
||--0---------------------|---------------------------|
||------------------------|---------------------------|


|--------------------0-----|---------------0---------|
|-------------0 h 3-----3--|-(3)----0 h 3-------3----|
|-------0------------------|-----0-------------------|
|----------0---------------|-------------------------|
|--------------------------|-------------------------|
|--3-----------------------|-------------------------|


|--------------------0-----|---------------0-----------|
|-------------0 h 1-----1--|-(1)----0 h 1-----1-----1--|
|-------0------------------|-----0---------------0-----|
|----------2---------------|---------------------------|
|--3-----------------------|---------------------------|
|--------------------------|---------------------------|


|--------------------0-----|---------------0---------|
|-------0-----0 h 3-----3--|-(3)----0 h 3-------3----|
|--1-------1---------------|-----1-------------------|
|--2-----------------------|-------------------------|
|--2-----------------------|-------------------------|
|--------------------------|-------------------------|


|-------------------0-----|---------------0-----------|
|------------0 h 1-----1--|-(1)----0 h 1-----1-----0--|
|-------2-----------------|-----2---------------2-----|
|-------------------------|---------------------------|
|--0----------------------|---------------------------|
|-------------------------|---------------------------|


|--------------------0-----|---------------0-----------|
|-------------0 h 3-----3--|-(3)----0 h 3-----3--------|
|-------0------------------|-----0------------------0--|
|----------0---------------|---------------------0-----|
|--------------------------|---------------------------|
|--3-----------------------|---------------------------|


|--------------------0-----|---------------0-----------|
|-------------0 h 1-----1--|-(1)----1 h 3-----3-----3--|
|-------0------------------|-----0---------------0-----|
|----------2---------------|---------------------------|
|--3-----------------------|---------------------------|
|--------------------------|---------------------------|


|--------------------0-----|---------------0---------|
|-------0-----0 h 3-----3--|-(3)----0 h 3-------3----|
|--1-------1---------------|-----1-------------------|
|--2-----------------------|-------------------------|
|--2-----------------------|-------------------------|
|--------------------------|-------------------------|


|-------------------0-----|--------------0-----------|
|------------0 h 1-----1--|-(1)---0 h 1-----1-----0--|
|-------2-----------------|--------------------2-----|
|-------------------------|--------------------------|
|--0----------------------|--------------------------|
|-------------------------|--------------------------|


|--------------------0-----|---------------0---------|
|-------------0 h 3-----3--|-(3)----0 h 3-------3----|
|-------0------------------|-----0-------------------|
|----------0---------------|-------------------------|
|--------------------------|-------------------------|
|--3-----------------------|-------------------------|


|--------------------0-----|---------------0-----------|
|-------------0 h 1-----1--|-(1)----1 h 3-----3-----3--|
|-------0------------------|-----0---------------0-----|
|----------2---------------|---------------------------|
|--3-----------------------|---------------------------|
|--------------------------|---------------------------|

                                                        Rake chord
|--------------------0-----|---------------0---------|--0----------------|
|-------0-----0 h 3-----3--|-(3)----0 h 3-------3----|--1----------------|
|--1-------1---------------|-----1-------------------|--2----------------|
|--2-----------------------|-------------------------|--2----------------|
|--2-----------------------|-------------------------|--0----------------|
|--------------------------|-------------------------|-------------------|


|--(0)--------------||
|--(1)--------------||
|--(2)--------------||
|--(2)--------------||
|--(0)--------------||
|-------------------||



During the first 8 bars the tempo gradually increases to 110 BPM.



During the last 4 bars of the riff the tempo gradually decreases to 62 BPM.



================================================================================
Riff 3b: Guitar 2 (Play once through)
================================================================================


Rest for 8 bars


||-------------------|------------------------|--------------------|
||-------------------|------------------------|--------------------|
||--9----------------|-(9)-------10----10--9--|--7------------9----|
||-------------------|------------------------|--------------------|
||-------------------|------------------------|--------------------|
||-------------------|------------------------|--------------------|


|----------------------|-------------------|---------------------|
|----------------------|-------------------|---------------------|
|--9--------9----9--7--|--5----------------|--5--------7----5----|
|----------------------|-------------------|---------------------|
|----------------------|-------------------|---------------------|
|----------------------|-------------------|---------------------|


|-------------------|-----------------------|---------------------|
|-------------------|-----------------------|---------------------|
|--4----------------|--4-------(6/9)---7----|--(7/9)--------------|
|-------------------|-----------------------|---------------------|
|-------------------|-----------------------|---------------------|
|-------------------|-----------------------|---------------------|


|------------------------|--------------------|----------------------|
|------------------------|--------------------|----------------------|
|-(9)-------10----10--9--|--7------------9----|--9--------9----9--7--|
|------------------------|--------------------|----------------------|
|------------------------|--------------------|----------------------|
|------------------------|--------------------|----------------------|


|-------------------|---------------------|-------------------|
|-------------------|---------------------|-------------------|
|--5----------------|--5--------7----5----|--4----------------|
|-------------------|---------------------|-------------------|
|-------------------|---------------------|-------------------|
|-------------------|---------------------|-------------------|


|-----------------------|---------------------|-------------------||
|-----------------------|---------------------|-------------------||
|--4-------(6/9)---7----|--(7/9)--------------|--(9)--------------||
|-----------------------|---------------------|-------------------||
|-----------------------|---------------------|-------------------||
|-----------------------|---------------------|-------------------||



================================================================================
End
================================================================================


Tab summary:        Riff 1 x 1
                    Riff 2a x 8 + Riff 2b x 1
                    Riff 3 x 1
                    
                    END

            
            
Suggest correction
Creating personal tab
Creating personal tab
You can edit any tab online and save it as your Personal.

You can edit, replace or remove any tab part or add personal notes – all changes will be seen only by you.

Personal tabs can be accessed anytime from any device, even offline.
Learn more »
Give kudos to tab author, rate the tab!
1 2 3 4 5
comments
print report bad tab
guest
You may want to rate the tab now too:
select rating
Wanna post a correction for this tab? Suggest correction