Oops, an error
Loading. Please wait.

Forever Lost Emeralds bass

version 1
version 1

Whole song

Interactive

50 views 1 this week
no commentswrite comment
1 2 3 4 5
3 more votes to show rating
add to favorites
×
Save as Personal and add changes to this tab that will be seen only by you. Learn more ›
×
You can save this tab as Personal to edit and correct it or add notes. All changes will be seen only by you. Learn more »
launch autoscroll
font size
0
reset
guitar tuner
edit
Autoscroll
slow
fast
+/-
esc
set tempo
stop
================================================================================
                       M O U R N I N G   B E L O V E T H

                                       -

                   F O R E V E R   L O S T   E M E R A L D S
================================================================================


                                 AUTUMNAL FIRES
                                     (Demo)
             (c) Mourning Beloveth (Independent Recording) - 1998
                        http://www.mourningbeloveth.com/

                          -----------------------------
                              Tune Down 1 & 1/2 Steps
                                    C# F# B E

  This song is a very early, cheap recording, and as a result the pitch of the
  song is slightly higher than outlined in the guitar tunings.  If you want to
    play along with the actual track itself, tune your guitar(s) so that the
                      pitch lies somewhere between C# and D

                          -----------------------------


                                 Tempo =  80 BPM
                               Time Signature = 4/4


                          -----------------------------
                                 Transcribed by

                                 PADDY MCMULLAN
                           stinkypoohpants@yahoo.co.uk

                                   Version 1.0
                             -----------------------

                             Tablature Symbols Used:


 p         -  Pull-Off
 h         -  Hammer-On
 (/)       -  Legato Slide (Blank space indicates length of slide)
 \         -  Slide Down to/Down From (Blank space indicates length of slide)
 /         -  Slide Up To/Up From (Blank space indicates length of slide)
 ( )       -  Ghost Note/Tied Note/Implied Note
 REST      -  Rest and sustain rest for duration of blank space
 |_3_|     -  Triplet notes


================================================================================
Rest for 8 bars
================================================================================

================================================================================
Riff 1: (Play 4 times)
================================================================================


||----------------------|--------------------|-----------------------|
||----------------------|--------------------|-----------------------|
||----------------------|--------------------|-----------------------|
||--3----3h5---5--------|--5--------0--------|--3----3h5---5----1----|


|---------------------| |
|---------------------|*|
|---------------------|*|
|--1----3----3--------| |



================================================================================
Riff 2: (Play 8 times) [Tempo = 65 BPM]
================================================================================


||-------------------|----------------------|-------------------|
||-------------------|----------------------|-------------------|
||-------------------|-------5----5----3----|--3----------------|
||--0----------------|--0-------------------|-------------------|


|------------------------|-------------------|------------------------| |
|------------------------|-------------------|------------------------|*|
|--(3)----3----3----2----|--2----------------|--(2)----2----2---------|*|
|------------------------|-------------------|-------------------0----| |



After repeating the riff 8 times, strike the following note and hold it for 2
bars, at which point the tempo becomes 70 BPM


||-------||
||-------||
||-------||
||--0----||



================================================================================
Riff 3: (Play 4 times) [Tempo = 70 BPM]
================================================================================

                                            |_3_|
||------------------------|-----------------------| |
||------------------------|-----------------------|*|
||--------------2----2----|--3----3---------------|*|
||--(0)----0--------------|------------5----3-3-2-| |



After the first repeat the first bar is replaced with the following:


||---------------------|
||---------------------|
||-----------2----2----|
||--0------------------|



================================================================================
Riff 4: (Play 8 times)
================================================================================


||-------------------------|------------------------------| |
||-------------------------|------------------------------|*|
||--7----7\-2--3----3--2-3-|--5----5--2--2----------------|*|
||-------------------------|----------------0-0-3-2-2-2-0-| |



================================================================================
Play riff 3 4 times
================================================================================

================================================================================
Play riff 2 8 times (Conforming to the tempo changes)
================================================================================

  
After repeating Riff 2 8 times, strike the following note and hold it for 2
bars, at which point the tempo becomes 40 BPM


||-------||
||-------||
||-------||
||--0----||



================================================================================
Riff 5: (Play twice) [Tempo = 40 BPM]
================================================================================


||------------------|------------------|------------------|
||------------------|------------------|------------------|
||--0-----0-3-----3-|--2-----2---------|--0-----0-3-----3-|
||------------------|----------3----3--|------------------|

                                                   |_3_|
|------------------|------------------|--------------------------| |
|------------------|------------------|--------4-5-4h5p4---4-5-7-|*|
|--2-----2---------|--0-----0-3-----3-|--2---------------5-------|*|
|----------3----3--|------------------|--------------------------| |



================================================================================
Riff 6: (Play 12 times, ending with the supplement) [Tempo = 45 BPM]
================================================================================


||----------------|---------------------| |
||----------------|---------------------|*|
||--0-------------|---------------------|*|
||---------3------|--0------1-1-1-1-1-1-| |



        --------------
        | Supplement |
        --------------

        ||---------------||
        ||---------------||
        ||--0------------||
        ||---------------||



================================================================================
End
================================================================================


Tab summary:        Riff 1 x 4
                    Riff 2 x 8
                    Riff 3 x 4
                    Riff 4 x 8
                    Riff 3 x 4
                    Riff 2 x 8
                    Riff 5 x 2
                    Riff 6 x 12

                    END

            
            
Suggest correction
Creating personal tab
Creating personal tab
You can edit any tab online and save it as your Personal.

You can edit, replace or remove any tab part or add personal notes – all changes will be seen only by you.

Personal tabs can be accessed anytime from any device, even offline.
Learn more »
Give kudos to tab author, rate the tab!
1 2 3 4 5
comments
print report bad tab
guest
You may want to rate the tab now too:
select rating
Wanna post a correction for this tab? Suggest correction