Oops, an error
Loading. Please wait.

It Almost Looked Human bass

version 1
version 1

Whole song

Interactive

44 views 1 this week
no commentswrite comment
1 2 3 4 5
3 more votes to show rating
add to favorites
×
Save as Personal and add changes to this tab that will be seen only by you. Learn more ›
×
You can save this tab as Personal to edit and correct it or add notes. All changes will be seen only by you. Learn more »
launch autoscroll
font size
0
reset
guitar tuner
edit
Autoscroll
slow
fast
+/-
esc
set tempo
stop
================================================================================
                       M O U R N I N G   B E L O V E T H

                                       -

                   I T   A L M O S T   L O O K E D   H U M A N
================================================================================


                                THE SULLEN SULCUS
                           (c) Sentinel Records - 2002
                        http://www.mourningbeloveth.com/


                              Tune Down 1 & 1/2 Steps
                                     C# F# B E

                                  Tempo = 65 BPM
                               Time Signature = 4/4



                          -----------------------------
                                 Transcribed by

                                 PADDY MCMULLAN
                           stinkypoohpants@yahoo.co.uk

                                   Version 1.0
                             -----------------------

                             Tablature Symbols Used:


 p         -  Pull-Off
 h         -  Hammer-On
 (/)       -  Legato Slide (Blank space indicates length of slide)
 \         -  Slide Down to/Down From (Blank space indicates length of slide)
 /         -  Slide Up To/Up From (Blank space indicates length of slide)
 ( )       -  Ghost Note/Tied Note/Implied Note
 REST      -  Rest and sustain rest for duration of blank space



================================================================================
Riff 1: Play 6 times
================================================================================


||------------------------|------------------------|
||------------------------|------------------------|
||--0----0--0----0--0--0--|------------------------|
||------------------------|--3----3--3----3--3--3--|


|------------------------|----------------------| |
|------------------------|----------------------|*|
|------------------------|------------3----2----|*|
|--1----1--1----1--1--1--|--0------0------------| |



================================================================================
Riff 2: Play twice
================================================================================


||-------------------------|--------------------------| |
||-------2------0-2-3--2---|--------------------------|*|
||-----------------------3-|--------------------------|*|
||--0----------------------|--1--1--1--1--0--0--1--1--| |



================================================================================
Riff 3: Play 4 times
================================================================================


||----------------------|----------------------|
||----------------------|----------------------|
||----------------------|----------------------|
||--3------3--3------3--|--2------2--2------2--|


|-----------------------|-----------------------|
|-----------------------|-----------------------|
|-----------------0--2--|--3------3--3---3---3--|
|--0------0--0----------|-----------------------|


|-----------------------|-----------------------| |
|-----------------------|-----------------------|*|
|-----------------------|--2------2-2-2----2----|*|
|--3------3--3---3---3--|-----------------------| |



================================================================================
Riff 4: Play once
================================================================================


||------------------------|----------------------|
||--2--3--3--2--2------2--|--2------2--2------2--|
||------------------------|----------------------|
||------------------------|----------------------|


|------------------------|----------------------|
|------------------------|----------------------|
|--2--3--3--2------------|----------------------|
|--------------0------0--|--0------0--0------0--|


|------------------------|----------------------|
|--2--3--3--2--2------2--|--2------2--2------2--|
|------------------------|----------------------|
|------------------------|----------------------|


|------------------------|----------------------|
|------------------------|----------------------|
|--2--3--3--2------------|----------------------|
|--------------0------0--|--0------0--0------0--|


|------------------------| |------------||
|--2--3--3--2--2---------|2|------------||
|---------------------0--|/|--0------0--||
|------------------------|4|------------||



================================================================================
Riff 5: Play 4 times
================================================================================


||----------------------|----------------------|
||----------------------|----------------------|
||--0----3----3----3----|--5------5--5------5--|
||----------------------|----------------------|


|----------------------|------------------------| |
|----------------------|--2--3--3--2--2---------|*|
|--3-------------------|---------------------0--|*|
|-----------3--3--3----|------------------------| |



================================================================================
Play riff 1 six times
================================================================================

================================================================================
Play riff 2 eight times, ending on the following note:
================================================================================


||-----R-           -||
||-----E-           -||
||-----S-           -||
||--0--T-           -||



================================================================================
End
================================================================================


Tab summary:        Riff 1 x 6
                    Riff 2 x 2
                    Riff 3 x 4
                    Riff 4 x 1
                    Riff 5 x 4
                    Riff 1 x 6
                    Riff 2 x 8
                    
                    END

            
            
Suggest correction
Creating personal tab
Creating personal tab
You can edit any tab online and save it as your Personal.

You can edit, replace or remove any tab part or add personal notes – all changes will be seen only by you.

Personal tabs can be accessed anytime from any device, even offline.
Learn more »
Give kudos to tab author, rate the tab!
1 2 3 4 5
comments
print report bad tab
guest
You may want to rate the tab now too:
select rating
Wanna post a correction for this tab? Suggest correction