Oops, an error
Loading. Please wait.

Nothing The March Of Death tab

version 1
version 1

Whole song

Interactive

215 views 1 this week
no commentswrite comment
1 2 3 4 5
3 more votes to show rating
add to favorites
×
Save as Personal and add changes to this tab that will be seen only by you. Learn more ›
×
You can save this tab as Personal to edit and correct it or add notes. All changes will be seen only by you. Learn more »
launch autoscroll
font size
0
reset
how to read this tab
guitar tuner
edit
Autoscroll
slow
fast
+/-
esc
set tempo
stop
================================================================================
                       M O U R N I N G   B E L O V E T H

                                       -

             N O T H I N G   (T H E   M A R C H   O F   D E A T H)
================================================================================


                               A MURDEROUS CIRCUS
                            (c) Grau Records - 2005
                        http://www.mourningbeloveth.com/


                              Tune Down 1 & 1/2 Steps
                                  C# F# B E G# C#

                                 Tempo =  70 BPM
                              Time Signature =  6/4



                          -----------------------------
                                 Transcribed by

                                 PADDY MCMULLAN
                           stinkypoohpants@yahoo.co.uk

                                   Version 1.2
                      (Corrections Outlined at Bottom of Tab)
                             -----------------------

                             Tablature Symbols Used:


 P.M...    -  Palm Mute
 p         -  Pull-Off
 h         -  Hammer-On
 (/)       -  Legato Slide (Blank space indicates length of slide)
 \         -  Slide Down to/Down From (Blank space indicates length of slide)
 /         -  Slide Up To/Up From (Blank space indicates length of slide)
 ( )       -  Ghost Note/Tied Note/Implied Note
 ~~        -  Vibrato
 /\        -  Down-stroke/Strum down (from low to high strings)
 \/        -  Up-stroke/Strum up (from high to low strings)
 REST      -  Rest, and sustain rest for duration of blank space

                             -----------------------
                                  Chords Used:
                             -----------------------

                             Am         E          F

                     C#||----0----||----0----||----1----||
                     G#||----1----||----0----||----1----||
                     E ||----2----||----1----||----2----||
                     B ||----2----||----2----||----3----||
                     F#||----0----||----2----||----3----||
                     C#||---------||----0----||----1----||




================================================================================
Riff 1: Guitar 1 with clean tone (Play 4 times)
================================================================================


* Let notes ring wherever possible *

    Am                                E
||--0--------------0---------0-----|--0------0-------0--------------|
||--1------1--1----1---------1-----|--0------0-------0------0-------|
||--2------2--2----2------2--2--1--|--1------1--1----1------1-------|
||--2------2--2----2------2--2--x--|--x---------2----2------2--2----|
||--0---------0----0------0--------|--2---------2----2------2--2----|
||---------------------------------|--0--------------0--------------|
   /\      /\\/    /\    \/ /\ \/    /\     /\  \/  /\      \//\

   F                                 E
|--x--------------1------1--1-----|--0------0-------0-(0)-----------|
|--1------1-------1------1--1--0--|--0------0-------0-(x)---0--0----|
|--2------2-------2------2--2--0--|--1------1--1----1-------1--1----|
|--3------3-------3-----------(0)-|--2---------2----2-------2--2----|
|--3------3--3--------------------|--2---------2----2-------2--2----|
|--1---------1--------------------|--0--------------0----------0----|
  /\     \/ /\   /\     \/ /\ \/    /\     \/ /\   /\ \/   /\  \/

   Am                               E
|--0--------------0------0--0----|--0------0--0----0---------0----|
|--x------1-------1------1--1----|--0------0--0----0------0--0----|
|--2------2--2----2------2--2----|--1------1--1----1------1--1----|
|--2------2--2----2---------2----|--2------2--2----2------2--2----|
|--0------0--0----0--------------|--2------2--2----2------2--2----|
|--------------------------------|--0------0--0----0---------0----|
  /\      /\\/    /\    \/ /\       /\     /\ \/  /\      \//\

   F                                 E
|--x------1-------1------1--1-----|--0------0-------0--------------| |
|--1------1-------1------1--1--0--|--0------0-------0------0-------| |
|--2------2-------2------2--2--0--|--1------1--1----1------1--1----|*|
|--3------3--3--------------3--0--|--2---------2----2------2--2----|*|
|--3---------3--------------------|--2---------2----2------2--2----| |
|--1------------------------------|--0---------0----0--------------| |
  /\     \/ /\   /\     \/ /\ \/    /\     \/ /\   /\      /\ \/



This tab is correct for the first 8 bars, after which there are variations
which are too slight to warrant a complete tabbing

NOTE: The tempo increases slightly after the first 8 bars.  The new tempo is
80 Bpm.



================================================================================
Riff 2: Guitars 2 and 3 with heavy distortion (Play 7 times, with lead riff 1)
================================================================================


||--------------------------------|--------------------------------|
||--------------------------------|--------------------------------|
||--2------2--2----2------2--2----|--------------------------------|
||--2------2--2----2------2--2----|--2------2--2----2------2--2----|
||--0------0--0----0------0--0----|--2------2--2----2------2--2----|
||--------------------------------|--0------0--0----0------0--0----|
           P.M.           ....              ....           ....

|--------------------------------|--------------------------------| |
|--------------------------------|--------------------------------| |
|--------------------------------|--------------------------------|*|
|--3------3--3----3------3--3----|--2------2--2----2------2--2----|*|
|--3------3--3----3------3--3----|--2------2--2----2------2--2----| |
|--1------1--1----1------1--1----|--0------0--0----0------0--0----| |
          ....           ....              ....           ....



NOTE: After the second repeat the tempo increases slightly to 85 Bpm



================================================================================
Lead Riff 1: Guitar 4 with heavy distortion (Play once through)
================================================================================


1
||-----------------------------------------|
||-----------------------------------------|
||-----------------------------------------|
||--7~~----7--7--9--10~~----10--(10/12)----|
||-----------------------------------------|
||-----------------------------------------|

2
|-------------------------------------|
|-------------------------------------|
|-------------------------------------|
|--9------9--7---9p(7\6)--------------|
|-----------------------------7--7----|
|-------------------------------------|

3                                         4
|-----------------------------------------|----------------------------------|
|-----------------------------------------|----------------------------------|
|-----------------------------------------|----------------------------------|
|-----------------------------------------|----------------------------------|
|--8--------(8/10)----12p-10--8----8h 10--|--7------7--7--5h7-7------7--7----|
|-----------------------------------------|----------------------------------|

5                                 6                       |_3_|
|---------------------------------|-----------------------------------|
|---------------------------------|-----------------------------------|
|---------------------------------|-----------------------------------|
|---------------------------------|-----------------------------------|
|---------------------------------|-------------8--7------7h8p7-5--7--|
|--8------8--8--7--5------5--8----|--7--------------------------------|

7
|--------------------------------------------------|
|--------------------------------------------------|
|--------------------------------------------------|
|--------------------------------------------------|
|--8--7--(8/ 10)--8--10--12--10--(12/ 15)--14--12--|
|--------------------------------------------------|

8
|---------------------------------------------|
|---------------------------------------------|
|---------------------------------------------|
|---------------------------------------------|
|--12h14~~---14--14--12--12h14------14--14~~--|
|---------------------------------------------|

9
|----------------------------------------|
|----------------------------------------|
|----------------------------------------|
|--14--------14--12--10------10--10h 12--|
|----------------------------------------|
|----------------------------------------|

10                            |_3__|
|------------------------------------------|
|------------------------------------------|
|---------------(7/10)-9------9h10p9-7--9--|
|--9------9--9-----------------------------|
|------------------------------------------|
|------------------------------------------|

11
|-----------------------------------------------------|
|-----------------------------------------------------|
|--10--9--(10/ 12)--10--12--14--12--(14/ 17)--16--14--|
|-----------------------------------------------------|
|-----------------------------------------------------|
|-----------------------------------------------------|

12                                 13
|----------------------------------|-------------------------------------|
|----------------------------------|-------------------------------------|
|--16~~--------14--13~~------13----|--14------14--(14\   9)------9--9----|
|----------------------------------|-------------------------------------|
|----------------------------------|-------------------------------------|
|----------------------------------|-------------------------------------|

14
|-----------------------------------------|
|-----------------------------------------|
|--12--------10--12p10-9-------10p9-7--9--|
|-----------------------------------------|
|-----------------------------------------|
|-----------------------------------------|

15
|-------------------------------------------|
|-------------------------------------------|
|--10------10--10--9------------------------|
|---------------------10------10--(10/ 12)--|
|-------------------------------------------|
|-------------------------------------------|

16                                17
|---------------------------------|------------------------------------|
|---------------------------------|------------------------------------|
|---------------------------------|------------------------------------|
|--9------9--9--7h9-9--------9----|--10--9----7----(7\ 2)------7--7----|
|---------------------------------|------------------------------------|
|---------------------------------|------------------------------------|

18                        |_3__|
|--------------------------------------|
|--------------------------------------|
|--------------10--9------9h10p9-7--9--|
|--6--------6--------------------------|
|--------------------------------------|
|--------------------------------------|

19
|-----------------------------------------------------|
|-----------------------------------------------------|
|--10--9--(10/ 12)--10--12--14--12--(14/ 17)--16--14--|
|-----------------------------------------------------|
|-----------------------------------------------------|
|-----------------------------------------------------|

20
|------------------------------------||
|------------------------------------||
|--16----------14--13----------------||
|--------------------------14--12\ --||
|------------------------------------||
|------------------------------------||



This riff enters after two repeats of riff 2



================================================================================
Riff 3: Guitars 2 and 3 (Play 4 times)      [ Time Signature = 4/4 ]
================================================================================


||---------------------------|------------------------|
||---------------------------|------------------------|
||---------------------------|------------------------|
||-----(5/ 7/ 9)-----10------|------------------------|
||--0-------------0----------|--0--(5/ 7/ 8)----------|
||---------------------------|------------------------|
   ...           ...           ...

                                           |_3_|
|---------------------------|-----------------------------|
|---------------------------|-----------------------------|
|---------------------------|-----------------------------|
|-----(5/ 7/ 9)-----10------|-----------------------------|
|--0-------------0----------|--0--5--7--8--7h8p7-5--3--5--|
|---------------------------|-----------------------------|
  ...           ...           ...

|---------------------------|------------------------|
|---------------------------|------------------------|
|---------------------------|------------------------|
|-----(5/ 7/ 9)-----10------|------------------------|
|--0-------------0----------|--0--8--7--5----7----0--|
|---------------------------|------------------------|
  ...           ...           ...                ...

|--------------------------|-------------------------||
|--------------------------|-------------------------||
|--------------------------|-------------------------||
|---------3--3---2---------|--2----------------------||
|--------------------(3\2)-|--2----2 / -7h8-7p5-7----||
|--1-----------------------|--0----------------------||




================================================================================
Riff 4a: Guitar 2 (Play 4 times) [ Tempo = 98 Bpm ]
================================================================================


||-----------------------------|-----------------------------|
||-----------------------------|-----------------------------|
||------------------9------12--|------------------9------12--|
||-----7--9--10--------10------|-----7--9--10--------10------|
||--0------------0-------------|--0------------0-------------|
||-----------------------------|-----------------------------|
   ...          ...   ....       ...          ...   ....

|-------------------------------|--------------------------| |
|-------------------------------|--------------------------| |
|-------------12----------------|-----------------9--------|*|
|------9--------------9------9--|-----6-----9-----------9--|*|
|--10-----10------10-----10-----|--7-----7-----7-----7-----| |
|-------------------------------|--------------------------| |
   ..     ..      ..     ..       ...   ...   ...   ...



On the last repeat, replace the last bar with the supplement:


        ==============
        | Supplement |
        ==============

        |--------------------------||
        |--------------------------||
        |----------------9---------||
        |-------6--7--9-----9--10--||
        |--7-----------------------||
        |--------------------------||



================================================================================
Riff 4b: Guitar 3 (Play 4 times)
================================================================================


||-------------------|---------------------|-------------------|
||-------------------|---------------------|-------------------|
||--2----------------|--(2)----------------|-------------------|
||--2----------------|--(2)----------------|--5----------------|
||--0----------------|--(0)----------------|--5----------------|
||-------------------|---------------------|--3----------------|


|-------------------| |
|-------------------| |
|-------------------|*|
|--2----------------|*|
|--2----------------| |
|--0----------------| |



================================================================================
Riff 5a: Guitar 2 (Play 8 times)  [ Tempo = 105 Bpm ]
================================================================================


                      |_3_|
||-----------------------------|-----------------------------| |
||-----------------------------|-----------------------------| |
||-----------------------------|-------------------9---------|*|
||-----7-----7-----9--7h9p7-6--|--(6)-----6--7--9-----9--10--|*|
||--0-----0-----0--------------|-------7---------------------| |
||-----------------------------|-----------------------------| |
   ...   ...   ...                    ...



================================================================================
Riff 5b: Guitar 3 (Play 8 times)
================================================================================


                      |_3_|
||-----------------------------|----------------------------| |
||-----------------------------|----------------------------| |
||-----2-----2-----------------|-------------------------2--|*|
||-----2-----2-----------------|-------------------------2--|*|
||--0--0--0--0--0--2--0h2p0----|-------2--2--2--2--2--2--0--| | 
||--------------------------4--|--(4)--0--0--0--0--0--0-----| |
   ...   ...   ...                     ................



================================================================================
Guitars 2 and 3 play riffs 4a & 4b respectively four times
================================================================================

================================================================================
Riff 6: Guitars 2 and 3 (Play 6 times)   [ Tempo = 75 Bpm ]
================================================================================


| |-----------------------| |---------------| |-----------------------|
| |-----------------------| |---------------| |-----------------------|
|4|------------------2----|5|--(2)----------|4|------------------2----|
|/|--2---------------2----|/|--(2)----------|/|--2---------------2----|
|4|--0----0--3--3----0----|4|--(0)----------|4|--0----0--3--3----0----|
| |-------------1---------| |---------------| |-------------1---------|
          ....                                        .....

| |--------------------------------| |
| |--------------------------------| |
|5|--------------------------------|*|
|/|--2--2--2--2--2--0--0--3--3--3--|*|
|4|--0--0--0--0--0--0--0--0--0--0--| |
| |--------------------------------| |
     ..............



After all of the necessary repeats, play the following chord and hold it for
4 bars:


||---------||
||---------||
||--2------||
||--2------||
||--0------||
||---------||



The tempo from here on becomes 50 Bpm



================================================================================
Rest for 24 bars
================================================================================

================================================================================
Riff 7a: Guitar 1 (Play 6 times)
================================================================================


* Let notes ring wherever possible *

| |-------------------------------| |--------------------------|
| |--R-                -----------| |--------------------------|
|6|--E-                -----------|4|--------------------------|
|/|--S-                --(7/ 15)--|/|--15------------7--(7/14)-|
|4|--T-                ---0-------|4|--0-------------0---0-----|
| |-------------------------------| |--------------------------|


|--------------------------|----------------------------|
|--------------------------|----------------------------|
|--------------------------|----------------------------|
|--14------------7--(7/15)-|--15----10--10h12-12--------|
|--0-------------0---0-----|--0-----0---0-----0---------|
|--------------------------|----------------------------|


| |------------------------------------| |
| |------------------------------------| |
|6|------------------------------------|*|
|/|------8--8h10-7------------(7/ 15)--|*|
|4|------0--0----0-------------0-------| |
| |------------------------------------| |



The first bar is only played the first time



================================================================================
Riff 7b: Guitar 5 with clean tone (Play 2 times)
================================================================================


| |--------------------------------| |-------------------------------------|
| |--R-                 -----------| |-------------------------------------|
|6|--E-                 ----(7/10)-|4|--10----10-9-10-(10/12)-10-----(7/9)-|
|/|--S-                 -7---------|/|-----------------------------7-------|
|4|--T-                 -----------|4|-------------------------------------|
| |--------------------------------| |-------------------------------------|

                                          |_3_|
|----------------------------------|-----------------------------------|
|----------------------------------|-----------------------------------|
|--9----9-7-(9/10)-9-7------(7/10)-|--10--9h10p9-----------------------|
|------------------------7---------|-------------10--(10/12)-12--------|
|----------------------------------|-----------------------------------|
|----------------------------------|-----------------------------------|


| |-----------------------------------------| |
| |-----------------------------------------| |
|6|----------------------------------(7/10)-|*|
|/|--(12)----8--8h10-7------------7---------|*|
|4|-----------------------------------------| |
| |-----------------------------------------| |



The first bar is only played the first time

This riff enters on bar 5th of riff 7a



================================================================================
Riff 8: Guitars 2 and 3 (Play 8 times, with lead riff 2)
================================================================================


| |-------------------------------| |------------------------|
| |--R-                 ----------| |------------------------|
|6|--E-                 -2--------|6|---------------2--------|
|/|--S-                 -2--------|/|---------------2--------|
|4|--T-                 -0--(5/8)-|4|--8------------0--(5/7)-|
| |-------------------------------| |------------------------|


|------------------------|-----------------------|
|------------------------|-----------------------|
|---------------2--------|-----------------------|
|---------------2--------|-----------------------|
|--7------------0--(5/8)-|--8----3--3h5-5--------|
|------------------------|-----------------------|


| |--------------------------------------| |
| |--------------------------------------| |
|6|----------------2------------2--------|*|
|/|----------------2------------2--------|*|
|4|--(5)----1--1h3-0------------0--(5/8)-| |
| |--------------------------------------| |



The first bar is only played the first time



================================================================================
Lead riff 2a: Guitar 4 (Play 4 times)
================================================================================


| |--------------------------------| |------------------------------|
| |--R-                 -----------| |--------(8/10)---8------------|
|6|--E-                 ----(7/10)-|4|--10---------------9-10~~-----|
|/|--S-                 -7---------|/|------------------------------|
|4|--T-                 -----------|4|------------------------------|
| |--------------------------------| |------------------------------|

   |_3__|                                     |_3__|
|--------------------------------------|---------------------------------|
|--------------------------------------|---------------------------------|
|--9h10p(9/12)----10-12p(10\9)~~--9~~--|--10--9h10p9---------------------|
|--------------------------------------|-------------10--10h12-12--------|
|--------------------------------------|---------------------------------|
|--------------------------------------|---------------------------------|

                         |_3_|     |_3_|
| |------------------------------------------------------| |
| |------------------------------------------------------| |
|6|-----------------------------------------------(7/10)-|*|
|/|--(12)----8--8h10-7---7h8p7-7---7h8p7-------7---------|*|
|4|--------------------------------------8-7-------------| |
| |------------------------------------------------------| |



The first bar is only played the first time

On the last repeat, replace the last bar with the supplement:


        ==============
        | Supplement |
        ==============


                                 |_3_|
        | |-----------------------------------------||
        | |-----------------------------------------||
        |6|-----------------------------------------||
        |/|--(12)----8--8h10-7---7h8p7-7------------||
        |4|-----------------------------------------||
        | |-----------------------------------------||



================================================================================
Lead riff 2b: Guitar 6 with heavy distortion (Play 4 times)
================================================================================


| |--------------------------------| |------------------------------|
| |--R-                 -----------| |--------(8/10)---8------------|
|6|--E-                 ----(7/10)-|4|--10---------------9-10~~-----|
|/|--S-                 -7---------|/|------------------------------|
|4|--T-                 -----------|4|------------------------------|
| |--------------------------------| |------------------------------|

   |_3__|                                         |_3__|
|------------------------------------------|------------------------------|
|-----------------------------------(8/10)-|--10--8h10p8------------------|
|--9h10p(9/12)----10-12p(10\9)-------------|-------------10--9--10--------|
|------------------------------------------|------------------------------|
|------------------------------------------|------------------------------|
|------------------------------------------|------------------------------|


| |----------------------------------------| |
| |----------------------------------------| |
|6|--(10)----9--10--9---------------(7/10)-|*|
|/|------------------------------7---------|*|
|4|----------------------------------------| |
| |----------------------------------------| |



The first bar is only played the first time

On the last repeat, replace the last bar with the supplement:


        ==============
        | Supplement |
        ==============

        | |-----------------------------------||
        | |-----------------------------------||
        |6|--(10)----9--9h10-9----------------||
        |/|-----------------------------------||
        |4|-----------------------------------||
        | |-----------------------------------||



================================================================================
Guitars 1 and 5 play riff 7a 6 times
================================================================================

================================================================================
End
================================================================================


Tab summary:        Riff 1 x 4
                    Riff 2 x 7 + Lead Riff 1 x 1
                    Riff 3 x 4
                    Riff 4a + 4b x 4
                    Riff 5a + 5b x 8
                    Riff 4a + 4b x 4
                    Riff 6 x 6
                    Riff 7a x 6 + Riff 7b x 2
                    Riff 8 x 8 + Lead Riff 2a + 2b x 4
                    Riff 7a x 6

                    End


-----------------------
Corrections (03/10/05):
-----------------------

* Corrected strum articulation in riff 1


-----------------------
Corrections (22/09/05):
-----------------------

* Corrected bars 1 and 2 of riff 4a

            
            
Suggest correction
Creating personal tab
Creating personal tab
You can edit any tab online and save it as your Personal.

You can edit, replace or remove any tab part or add personal notes – all changes will be seen only by you.

Personal tabs can be accessed anytime from any device, even offline.
Learn more »
Give kudos to tab author, rate the tab!
1 2 3 4 5
comments
print report bad tab
guest
You may want to rate the tab now too:
select rating
Wanna post a correction for this tab? Suggest correction