Oops, an error
Loading. Please wait.

The Apocalypse Machine bass

version 1
version 1

Whole song

Interactive

56 views 3 this week
no commentswrite comment
1 2 3 4 5
3 more votes to show rating
add to favorites
×
Save as Personal and add changes to this tab that will be seen only by you. Learn more ›
×
You can save this tab as Personal to edit and correct it or add notes. All changes will be seen only by you. Learn more »
launch autoscroll
font size
0
reset
guitar tuner
edit
Autoscroll
slow
fast
+/-
esc
set tempo
stop
================================================================================
                       M O U R N I N G   B E L O V E T H

                                       -

                  T H E   A P O C A L Y P S E   M A C H I N E
================================================================================


                               A MURDEROUS CIRCUS
                            (c) Grau Records - 2005
                        http://www.mourningbeloveth.com/


                              Tune Down 1 & 1/2 Steps
                                    C# F# B E

                                 Tempo =  70 BPM
                               Time Signature = 4/4



                          -----------------------------
                                 Transcribed by

                                 PADDY MCMULLAN
                           stinkypoohpants@yahoo.co.uk

                                   Version 1.0
                             -----------------------

                             Tablature Symbols Used:


 p         -  Pull-Off
 h         -  Hammer-On
 (/)       -  Legato Slide (Blank space indicates length of slide)
 \         -  Slide Down to/Down From (Blank space indicates length of slide)
 /         -  Slide Up To/Up From (Blank space indicates length of slide)
 ( )       -  Ghost Note/Tied Note/Implied Note



================================================================================
Riff 1: Play once
================================================================================


  1                      2
||----------------------|--------------------------|
||----------------------|--------------------------|
||--0------0--0------0--|--0------0-0-0--0--0-0-0--|
||----------------------|--------------------------|

 3                      4
|----------------------|--------------------------|
|----------------------|--------------------------|
|--0------0--0------0--|--0------0-0-0--0--0-0-0--|
|----------------------|--------------------------|

 5                      6                      7
|----------------------|----------------------|----------------------|
|----------------------|----------------------|----------------------|
|--0------0--0---------|----------------------|--0------0--0------0--|
|-------------------0--|--0------0--0------0--|----------------------|

 8                          9
|--------------------------|----------------------|
|--------------------------|----------------------|
|--0------0-0-0--0--0-0-0--|--0------0--0------0--|
|--------------------------|----------------------|

 10                         11
|--------------------------|----------------------|
|--------------------------|----------------------|
|--0------0-0-0--0--0-0-0--|--0------0--0------5--|
|--------------------------|----------------------|

 12
|----------------------||
|----------------------||
|--5------5--5------5--||
|----------------------||



================================================================================
Riff 2: Play once
================================================================================


||-----------------------|
||--0--2--3--0----2------|
||-----------------------|
||-----------------------|

|-------------------------|--------------------------|
|-------------------------|--------------------------|
|--0--2--3--3h5----2------|--0--0--2--3----3h5----2--|
|-------------------------|--------------------------|


|---------------------||
|---------------------||
|--(2)----------------||
|---------------------||



================================================================================
Play riffs 1 x 1
================================================================================

================================================================================
Play riff 2 x 1
================================================================================

================================================================================
Play riff 1 x 1
================================================================================

================================================================================
Play riff 2 x 1
================================================================================

================================================================================
Riff 3.1: Play twice [Tempo = 65 BPM]
================================================================================


||----------------------|----------------------|
||-----2--2-------------|-----2--2-------------|
||-----------3----------|-----------2----------|
||--0-------------------|--0-------------------|


|----------------------|----------------------| |
|-----2--2-------------|----------------------|*|
|-----------3----------|--3---3-3--2----------|*|
|--0-------------------|----------------------| |



================================================================================
Riff 3.2: Play 4 times [Tempo = 75 BPM]
================================================================================


||------------------------|------------------------|
||-----2--2---------------|-----2--2---------------|
||-----------3----3----3--|-----------2----2----2--|
||--0---------------------|--0---------------------|


|------------------------|----------------------| |
|-----2--2---------------|----------------------|*|
|-----------3----3----3--|--3---3-3--2----------|*|
|--0---------------------|----------------------| |



================================================================================
Riff 4.1: Play once [Tempo = 70 BPM]
================================================================================


||--------------------|--------------------||
||--------------------|--------------------||
||--------------------|--------------------||
||--0--------0--------|--0--------0--------||



================================================================================
Riff 4.2: Repeat as outlined below
================================================================================


     |__3__|  |__3__|  |__3__|  |__3__|
||--------------------------------------| |
||--------------------------------------|*|
||--------------------------------------|*| x 7
||--0--0--0--0--0--0--0--0--0--0--0--0--| |


   |__3__|  |__3__|  |____3___| |__3__|
|----------------------------------------||
|--------------------5--5-5-5-5-5--5--0--||
|----------------------------------------|| x 1
|--0--0--0--0--0--0----------------------||



================================================================================
Riff 5: Play 6 times [Tempo = 75 BPM]
================================================================================


    |_____3______| |______3_______|
||-----------------------------------|
||-----------------------------------|
||--3----3--3----3--3----3--5--5--5--|
||-----------------------------------|

   |___3__|  |__3__|  |___3__| |___3__|
|----------------------------------------|
|-------------------------------5--5--0--|
|--7--7-7-7--7--7--7--7--7-7-7-----------|
|----------------------------------------|

   |_____3______|  |_____3______|     |___3____|      |__3__|
|----------------------------------|--------------------------------| |
|----------------------------------|--------------------------------|*|
|--3----3--3----0--0----0----------|--------------------------------|*|
|--------------------------3----3--|--0--0-0-0-0-0----0--0--0--0----| |



After repeating the riff 6 times, play the last bar an extra time and hold the
open note for 2 bars



================================================================================
Rest for 5 bars
================================================================================

================================================================================
Riff 6: Play 3 times [Tempo = 65 BPM]
================================================================================


| |-----------------------------------|
|6|-----------4-------5--4------------|
|/|--2--5--2-----2----------2--5------|
|4|-----------------------------------|


|-----------------------------------|
|-----------4-------5--4------------|
|--2--5--2-----2----------2--5------|
|-----------------------------------|


|----------------------------------|
|----------------------------------|
|--0----0--0----0--0----0--0----0--|
|----------------------------------|


|-----------------------------------|
|-----------------------------------|
|--0----0--0----0--0--0--2--3----5--|
|-----------------------------------|


|-----------------------------------|
|-----------------------------------|
|--2----2--2----2--2----2--2--3--2--|
|-----------------------------------|


|----------------------------------|----------------------------------| |
|----------------------------------|----------------------------------|*|
|----------------------------------|----------------------------------|*|
|--0----0--0----0--0----0--0----0--|--0----0--0----0--0----0--0----0--| |



After the last repeat, play the first 2 bars once more



================================================================================
Riff 7: Play 6 times [Tempo = 115 BPM]
================================================================================


||--R-----R-----R-----R-----R-----R-----R-----R-----|
||--E-----E-----E-----E-----E-----E-----E-----E-----|
||--S--0--S--0--S--0--S--0--S--0--S--0--S--0--S--2--|
||--T-----T-----T-----T-----T-----T-----T-----T-----|

      |_3_|
|---------------------------------------------------| |
|---------------------------------------------------|*|
|--3--2h3p2-0--2----0-------------------------------|*| x 2
|------------------------4--4--5--5--5--5--5--5--5--| |


|--------------------------------------------------|
|--------------------------------------------------|
|--5--5--5--5--5--5--5--5--5--5--5--5--5--8--8--8--|
|--------------------------------------------------|

                                                   
|--------------------------------------------------| |
|--------------------------------------------------|*|
|--------------------------------------------------|*| x 2
|--5--5--5--5--5--5--5--5--5--5--5--7--7--5--5--5--| |



================================================================================
Play riff 4.1 x 1
================================================================================

================================================================================
Play riff 4.2 x 7 + additional bar
================================================================================

================================================================================
Play riff 5 12 times + additional bar
================================================================================

================================================================================
End
================================================================================


Tab summary:        Riff 1 x 1
                    Riff 2 x 1
                    Riff 1 x 1
                    Riff 2 x 1
                    Riff 1 x 1
                    Riff 2 x 1
                    Riff 3.1 x 2
                    Riff 3.2 x 4
                    Riff 4.1 x 1
                    Riff 4.2 x 8
                    Riff 5 x 6
                    Riff 6 x 3
                    Riff 7 x 6
                    Riff 4.1 x 1
                    Riff 4.2 x 8
                    Riff 5 x 12

                    END

            
            
Suggest correction
Creating personal tab
Creating personal tab
You can edit any tab online and save it as your Personal.

You can edit, replace or remove any tab part or add personal notes – all changes will be seen only by you.

Personal tabs can be accessed anytime from any device, even offline.
Learn more »
Give kudos to tab author, rate the tab!
1 2 3 4 5
comments
print report bad tab
guest
You may want to rate the tab now too:
select rating
Wanna post a correction for this tab? Suggest correction