Oops, an error
Loading. Please wait.

Yet Everything bass

version 1
version 1

Whole song

Interactive

48 views 1 this week
no commentswrite comment
1 2 3 4 5
3 more votes to show rating
add to favorites
×
Save as Personal and add changes to this tab that will be seen only by you. Learn more ›
×
You can save this tab as Personal to edit and correct it or add notes. All changes will be seen only by you. Learn more »
launch autoscroll
font size
0
reset
guitar tuner
edit
Autoscroll
slow
fast
+/-
esc
set tempo
stop
================================================================================
                        M O U R N I N G   B E L O V E T H

                                        -

                        . . . Y E T   E V E R Y T H I N G
================================================================================


                               A MURDEROUS CIRCUS
                            (c) Grau Records - 2005
                        http://www.mourningbeloveth.com/


                              Tune Down 1 & 1/2 Steps
                                    C# F# B E

                                 Tempo =  75 BPM
                              Time Signature =  3/4



                          -----------------------------
                                 Transcribed by

                                 PADDY MCMULLAN
                           stinkypoohpants@yahoo.co.uk

                                   Version 1.0
                             -----------------------

                             Tablature Symbols Used:


 p         -  Pull-Off
 h         -  Hammer-On
 (/)       -  Legato Slide (Blank space indicates length of slide)
 \         -  Slide Down to/Down From (Blank space indicates length of slide)
 /         -  Slide Up To/Up From (Blank space indicates length of slide)
 ( )       -  Ghost Note/Tied Note/Implied Note
 REST      -  Rest, and sustain rest for duration of blank space
 |_3_|     -  Triplet Notes



================================================================================
Riff 1.1: (Play 16 times)
================================================================================


||------------------------| |
||------------------------|*|
||--7--7-7-7-7-7--7-7-7-7-|*|
||------------------------| |



================================================================================
Riff 1.2: (Play 16 times) [ Tempo = 80 BPM ]
================================================================================


||------------------------| |
||------------------------|*|
||--7--7-7-7-7-7--7-7-7-7-|*|
||--0----------0----------| |



================================================================================
Riff 2: (Play 7 times)
================================================================================


  1                          2
||--------------------------|--------------------------|
||--------------------------|--------------------5-5-5-|
||--7-7-7-7-7-7-7-7-7-7-7-7-|--7-7-7-7-7-7-7-7-7-------|
||--------------------------|--------------------------|

 3                          4
|--------------------------|--------------------------|
|--------------------------|--------------------------|
|--------------------------|--------------------------|
|--7-7-7-7-7-7-7-7-7-7-7-7-|--7-7-7-7-7-7-7-7-7-7-7-7-|

 5                          6
|--------------------------|--------------------------|
|--------------------------|--------------------------|
|--7-7-7-7-7-7-7-7-7-7-7-7-|--5-5-5-5-5-5-5-5-5-------|
|--------------------------|--------------------7-7-7-|

 7                          8
|--------------------------|--------------------------| |
|--------------------------|--------------------------|*|
|--------------------------|--------------------------|*|
|--3-3-3-3-3-3-3-3-3-3-3-0-|--2-2-2-2-2-2-2-2-2-2-2-2-| |



================================================================================
Riff 3: (Play 4 times)
================================================================================


||--------------------------|--------------------------|
||--------------------------|--------------------------|
||--0-0-0-0-0-0-0-0-0-0-0-0-|--0-0-0-0-0-0-0-0-0-0-0-0-|
||--------------------------|--------------------------|


|--------------------------|--------------------------| |
|--------------------------|--------------------------|*|
|--3-3-3-3-3-3-3-3-3-3-3-0-|--2-2-2-2-2-2-2-2-2-2-2-2-|*|
|--------------------------|--------------------------| |



================================================================================
Riff 4: (Play 2 times)
================================================================================


  1                          2
||--------------------------|--------------------------|
||--------------------------|--------------------------|
||--5-5-5-5-5-5-5-5-5-5-5-5-|--3-3-3-3-3-3-3-3-3-3-3-3-|
||--------------------------|--------------------------|

 3                          4
|--------------------------|--------------------------|
|--------------------------|--------------------------|
|--7-7-7-7-7-7-7-7-7-7-7-7-|--5-5-5-5-5-5-5-5-5-5-5-5-|
|--------------------------|--------------------------|

 5                          6
|--------------------------|--------------------------|
|--------------------------|--------------------------|
|--5-5-5-5-5-5-5-5-5-5-5-5-|--3-3-3-3-3-3-3-3-3-3-3-3-|
|--------------------------|--------------------------|

 7                          8
|--------------------------|--------------------------| |
|--------------------------|--------------------------|*|
|--0-0-0-0-0-0-0-0-0-0-0-0-|--0-0-0-0-0-0-0-0-0-0-2-3-|*|
|--------------------------|--------------------------| |



================================================================================
Play Riff 3 twice
================================================================================


================================================================================
Play Riff 4 twice
================================================================================


================================================================================
Riff 5: (Play 6 times) [ Tempo = 74 BPM ]
================================================================================


  1                    2                 3
||--------------------|-----------------|--------R ----------|
||--0--2--------------|------------5----|--------E ----------|
||--------0--3--3--2--|--2------0-------|--0--0--S -3--3--2--|
||--------------------|-----------------|--------T ----------|

 4                 5                    6                 7
|-----------------|-------R -----------|-----------------|------------------|
|------------5----|-------E -----------|------------5----|------------------|
|--2------0-------|--0--0-S --3--3--2--|--2------0-------|------------------|
|-----------------|-------T -----------|-----------------|--3--3--3----3----|

 8
|--------------------| |
|--------------------|*|
|--------------------|*|
|--1--1--1--3--3--3--| |



After the last repeat, play and hold the following note for 4 bars:


||-----------||
||-----------||
||--0--------||
||-----------||



================================================================================
Rest for 4 bars
================================================================================

================================================================================
Riff 6: (Repeats outlined below) [ Tempo = 90 BPM ]
================================================================================


-----------
Part 1: X 1
-----------


  1                      2                       3
||----------------------|-----------------------|-----------------------|
||----------------------|-----------------------|-----------------------|
||--8------8--8------8--|--8--5----5--5------5--|--5--0----0--0------0--|
||----------------------|-----------------------|-----------------------|

 4                       5                        6
|-----------------------|------------------------|------------------------|
|-----------------------|------------------------|------------------------|
|--0--0----0--0------0--|--0--3----3--3--3----3--|--3--2----2--2--2----2--|
|-----------------------|------------------------|------------------------|

 7                        8
|------------------------|------------------------||
|------------------------|------------------------||
|--2--0----0--0--0----0--|--0--0----0--0--0----0--||
|------------------------|------------------------||



-----------
Part 2: X 1
-----------


  1                       2                        3
||-----------------------|------------------------|------------------------|
||-----------------------|------------------------|------------------------|
||--0--2----2----2----2--|-(2)--3----3----0----0--|-(0)--0----0----0----0--|
||-----------------------|------------------------|------------------------|

 4                        5                        6
|------------------------|------------------------|------------------------|
|------------------------|------------------------|------------------------|
|-(0)--0----0----0----0--|-(0)--2----2----2----2--|-(2)--3----3----0----0--|
|------------------------|------------------------|------------------------|

 7                        8
|------------------------|------------------------| |
|------------------------|------------------------|*|
|-(0)--0----0----0----0--|-(0)--0----0----0----0--|*|
|------------------------|------------------------| |



---------------
Play Part 1 X 1 [ Tempo = 103 during last 2 bars ]
---------------


-----------
Part 3: X 2 (Variation of Part 2)
-----------


  1                       2                        3
||-----------------------|------------------------|--------------R ----------|
||-----------------------|------------------------|--------------E ----------|
||--0--2----2----2----2--|-(2)--3----3----0----0--|-(0)--0--0--0-S -0--0--0--|
||-----------------------|------------------------|--------------T ----------|

 4                          5                       6
|--R ----------R ----------|-----------------------|------------------------|
|--E ----------E ----------|-----------------------|------------------------|
|--S --0--0--0-S -0--0--0--|--0--2----2----2----2--|-(2)--3----3----0----0--|
|--T ----------T ----------|-----------------------|------------------------|

 7                          8
|--------------R ----------|--------------R ----------| |
|--------------E ----------|--------------E ----------|*|
|-(0)--0--0--0-S -0--0--0--|-(0)--0--0--0-S -0--0--0--|*|
|--------------T ----------|--------------T ----------| |



-----------
Part 4: X 1 (Variation of Part 1)
-----------


  1                          2                       
||-------R ----R ----R -----|--R ---R ----R ----R -----|
||-------E ----E ----E -----|--E ---E ----E ----E -----|
||--0--8-S --8-S --8-S --8--|--S -5-S --5-S --5-S --5--|
||-------T ----T ----T -----|--T ---T ----T ----T -----|

 3                          4                          5
|--R ----------R ----------|--R ----------R ----------|-----------------------|
|--E ----------E ----------|--E ----------E ----------|-----------------------|
|--S -0--0--0--S -0--0--0--|--S -0--0--0--S -0--0--0--|--0--3----3----3----3--|
|--T ----------T ----------|--T ----------T ----------|-----------------------|

 6                        7                          8
|------------------------|---------------R ---------|--R ----------R ---------||
|------------------------|---------------E ---------|--E ----------E ---------||
|-(3)--2----2----2----2--|-(2)--0--0--0--S -0--0--0-|--S -0--0--0--S -0--0--0-||
|------------------------|---------------T ---------|--T ----------T ---------||



---------------
Play Part 3 X 2
---------------

---------------
Play Part 4 X 1
---------------

---------------
Play Part 3 X 1
---------------

---------------
Play Part 4 X 1
---------------

---------------
Play Part 3 X 2
---------------

---------------
Play Part 4 X 1
---------------



================================================================================
Riff 7: (Play twice) [ Tempo = 62 BPM ]
================================================================================


   1                     2                      3
| |---------------------|----------------------|----------------------|
|4|---------------------|----------------------|----------------------|
|/|--0----------------0-|--0--------0--2--3----|----------------------|
|4|---------------------|----------------------|--1--1------1--1------|

 4                          5                   6
|--------------------------|-------------------|----------------------|
|--------------------------|-------------------|----------------------|
|--------------------------|--0----------------|--0--------0--2--3----|
|--1--1------1--1h 3-3--3--|-------------------|----------------------|

 7                      8
|----------------------|--------------------------| |
|----------------------|--------------------------|*|
|----------------------|--------------------------|*|
|--1------1--1------1--|--1------1--1--1h 3-3--3--| |



================================================================================
Riff 8: (Play 18 times until fade) [ Tempo = 103 BPM ]
================================================================================


    |__3__|  |__3__|  |__3__|  |__3__|
||--------------------------------------|
||--------------------------------------|
||--0--0--0--0--0--0--0--0--0--0--2--3--|
||--------------------------------------|

   |__3__|  |__3__|  |__3__|  |__3__|      |__3__|  |__3__|  |__3__|  |__3__|
|---------------------------------------|--------------------------------------|
|---------------------------------------|--------------------------------------|
|--0--0--0--0--0--0--0--0--2--3--3--3/  | -8--8--8--8--8--8--8--8--8--8--7--7--|
|---------------------------------------|--------------------------------------|

   |__3__|  |__3__|  |__3__|  |__3__|
|--------------------------------------| |
|--------------------------------------|*|
|--5--5--5--5--5--5--3--3--3--2--2--2--|*|
|--------------------------------------| |



================================================================================
End
================================================================================


Tab summary:        Riff 1.1 X 16
                    Riff 1.2 X 16
                    Riff 2 X 7
                    Riff 3 X 4
                    Riff 4 X 2
                    Riff 3 X 2
                    Riff 4 X 2
                    Riff 5 X 6
                    Riff 6:
                           Part 1 X 1
                           Part 2 X 1
                           Part 3 X 2
                           Part 4 X 1
                           Part 3 X 2
                           Part 4 X 1
                           Part 3 X 2
                           Part 4 X 1
                    Riff 7 X 2
                    Riff 8 X 18

                    End

            
            
Suggest correction
Creating personal tab
Creating personal tab
You can edit any tab online and save it as your Personal.

You can edit, replace or remove any tab part or add personal notes – all changes will be seen only by you.

Personal tabs can be accessed anytime from any device, even offline.
Learn more »
Give kudos to tab author, rate the tab!
1 2 3 4 5
comments
print report bad tab
guest
You may want to rate the tab now too:
select rating
Wanna post a correction for this tab? Suggest correction