Oops, an error
Loading. Please wait.

Nineteen tab

3,064 views 123 this week
1 commentread comment
1 2 3 4 5
x 9
add to favorites
×
Save as Personal and add changes to this tab that will be seen only by you. Learn more ›
×
You can save this tab as Personal to edit and correct it or add notes. All changes will be seen only by you. Learn more »
launch autoscroll
font size
0
reset
how to read this tab
guitar tuner
edit
Autoscroll
slow
fast
+/-
esc
set tempo
stop
Movements - Nineteen (Tab)
by Triz

[Intro](0:00-0:09)
E|--------------------------------------------------|
B|--------------------------------------------------|
G|--------------------------------------------------|
D|---7^7--7^7---3-0---5-0----7^7---7^7---7^7---7^7--|
A|--------------------------------------------------|
D|--8----8----0-----3------8-----8-----8-----8------|

[Verse 1](0:09-0:40)
E|----------------------------------------------------------|
B|----------------------------------------------------------|
G|----------------------------------------------------------|
D|----7^7---7^7---3-0---5-0---7^7---7^7-----10-------12-----| 
A|----------------------------------------------------------|
D|--8-----8-----0-----3-----8-----8-----/12----12-10----10--|

 after that repeat "intro" + "Verse 1" and end on:
E|---------------------|
B|---------------------|
G|---------------------|
D|--12-12-12-12-12-12--|
A|--10-10-10-10-10-10--|
D|--10-10-10-10-10-10--|

[Instrumental](0:40-0:50)
E|--------------------------------------------------------------------------|
B|--10-10-10-10-10-10--15-15-15--8-8-8--10-10-10-10-10-10--8-8-8--13-13-13--|
G|--10-10-10-10-10-10--14-14-14--7-7-7--10-10-10-10-10-10--7-7-7--12-12-12--|
D|--8--8--8--8--8--8---12-12-12--5-5-5--8--8--8--8--8--8---5-5-5--10-10-10--|
A|--8--8--8--8--8--8---12-12-12--5-5-5--8--8--8--8--8--8---5-5-5--10-10-10--|
D|--8--8--8--8--8--8---12-12-12--5-5-5--8--8--8--8--8--8---5-5-5--10-10-10--|

[Verse 2](0:50-1:28)
E|-------------------------------------|
B|-------------------10^10-------------|
G|--------10----------------------7^7--| repeat 1x
D|-----0----------0------------0-------|
A|-------------------------------------|
D|--8----------0------------5----------|

E|-------------------------------------------------------------------------------------------|
B|-------------------------------------------------------------------------------------------|
G|-------------------------------------------------------------------------------------------|(repeat 1x)
D|-------0---0------0---0------0---0------0---0------0---0------0---0------0---0------0---0--|
A|-------------------------------------------------------------------------------------------|
D|--8--8---8---8--8---8---8--8---8---8--8---8---0--0---0---0--0---0---5--5---5---5--5--------|

 end on 
E|--------------|
B|--------------|
G|--------------|
D|--5--5-5-5-5--|
A|--5--5-5-5-5--|
D|--5--5-5-5-5--|


[Chorus 1](1:29-1:48)
 repeat "Instrumental", then continue with:
E|------------------------------------------------------------------------------------------------|
B|--10--10------10--10------15--15-15-15-8--8-8-8--10--10------10--10------8--8-8-8-13--13-13-13--|
G|--10--10------10--10------14--14-14-14-7--7-7-7--10--10------10--10------7--7-7-7-12--12-12-12--|
D|--8---8--x-x--8---8--x-x--12--12-12-12-5--5-5-5--8---8--x-x--8---8--x-x--5--5-5-5-10--10-10-10--|
A|--8---8--x-x--8---8--x-x--12--12-12-12-5--5-5-5--8---8--x-x--8---8--x-x--5--5-5-5-10--10-10-10--|
D|--8---8--x-x--8---8--x-x--12--12-12-12-5--5-5-5--8---8--x-x--8---8--x-x--5--5-5-5-10--10-10-10--|

[Verse 2](1:48-2:28)
repeat the "intro"+"Verse1" 2 times

[Interlude](2:28-3:06)
E|----------------------------------------------------------------------------------------------------|
B|----------------------------------------------------------------------------------------------------|
G|-----------------------------------------------------------------------------------------------9^9--repeat 1
D|---------10----10---------12----12-------7---7------8---8-------3---3-------3---3-------5---5--7----|
A|-----------------------------------------------------------------------------------------------7----|
D|--12--12----12-----10--10----10-----8--8---8---7--7---7----5--5---5----5--5---5----7--7---7----7----|
       *     *          *     *         *   *      *   *       *   *       *   *       *   *   

E|------------------------------------------------------------------------------------------------------|
B|------------------------------------------------------------------------------------------------------|
G|-----------------------------------------------------------------------------------------------10^10--| 
D|---------10----10---------12----12-------7---7------8---8-------3---3-------3---3-------5---5--7------|
A|-----------------------------------------------------------------------------------------------7------|
D|--12--12----12-----10--10----10-----8--8---8---7--7---7----5--5---5----5--5---5----7--7---7----7------|
       *     *          *     *         *   *      *   *       *   *       *   *       *   *   

E|--------------------------------------------------------------------------------------------------|
B|--------------------------------------------------------------------------------------------------|
G|--------------------------------------------------------------------------------------------------| 
D|---------10----10---------12----12-------7---7------8---8-------3---3-------3---3-------5---5-----|
A|--------------------------------------------------------------------------------------------------|
D|--12--12----12-----10--10----10-----8--8---8---7--7---7----5--5---5----5--5---5----7--7---7----7--|  

[Chorus 2](3:06-3:26)
E|------------------------------------------------------------------------------------------------|
B|--10--10------10--10------15--15-15-15-8--8-8-8--10--10------10--10------8--8-8-8-13--13-13-13--|
G|--10--10------10--10------14--14-14-14-7--7-7-7--10--10------10--10------7--7-7-7-12--12-12-12--|
D|--8---8--x-x--8---8--x-x--12--12-12-12-5--5-5-5--8---8--x-x--8---8--x-x--5--5-5-5-10--10-10-10--|
A|--8---8--x-x--8---8--x-x--12--12-12-12-5--5-5-5--8---8--x-x--8---8--x-x--5--5-5-5-10--10-10-10--|
D|--8---8--x-x--8---8--x-x--12--12-12-12-5--5-5-5--8---8--x-x--8---8--x-x--5--5-5-5-10--10-10-10--|

[Outro](3:27)
E|------------------------|
B|--10--10--10--8--8--13--|
G|--10--10--10--7--7--12--|(repeat 1x)
D|--8---8---8---5--5--10--|
A|--8---8---8---5--5--10--|
D|--8---8---8---5--5--10--|

 end on
E|--8---|
B|--10--|
G|--10--|
D|--8---|
A|--8---|
D|--8---|

            
            
Suggest correction
Creating personal tab
Creating personal tab
You can edit any tab online and save it as your Personal.

You can edit, replace or remove any tab part or add personal notes – all changes will be seen only by you.

Personal tabs can be accessed anytime from any device, even offline.
Learn more »
comments
print report bad tab
1 comment total.
0 reply
seanduong 10 Sep 03, 2017 12:00 PM

dope tab thanks homie gee

guest
Wanna post a correction for this tab? Suggest correction