Oops, an error
Loading. Please wait.

Rompiendo La Ley chords

by Mox
54 views 1 this week
no commentswrite comment
1 2 3 4 5
3 more votes to show rating
add to favorites
×
Save as Personal and add changes to this tab that will be seen only by you. Learn more ›
×
You can save this tab as Personal to edit and correct it or add notes. All changes will be seen only by you. Learn more »
launch autoscroll
font size
0
reset
transpose
0
reset
simplify chords
display chords
guitar tuner
edit
Autoscroll
slow
fast
+/-
esc
set tempo
stop
Strumming
There is no strumming pattern for this song yet. and get +5 IQ
e|--------------------------------------------------------|
B|--------------------------------------------------------|
G|--------------------------------------------------------| X2
D|--------------------------------------------------------|
A|--0--2--3--0--2--3--0--2--3--------0--------0--0--3--2--|
E|-----------------------------1--3-----1--3--------------|

 A5                   C5   G5       A5
Ahí estaba destruido, sin trabajo y mal
 A5                                   C5      G5     A5
Todo adentro es tan frustrante a la deriva en la ciudad
  F5                           C5
Siento que a nadie le importa si es que vivo o muero
  F5                        E5
Creo que hoy comenzaré a ponerle algo de acción

A5
Rompiendo la ley, rompiendo la ley
Rompiendo la ley, rompiendo la ley
Rompiendo la ley, rompiendo la ley
Rompiendo la ley, rompiendo la ley

 A5                      C5   G5    A5
Mucho parece futuro, no puedo comenzar
 A5                     C5        D5  E5
Ya rompí cada promesa y lo de mi corazón
 F5                  C5
Tú no sabes cómo es, no tienes idea
  F5                            E5
Y si lo sabes vas a estar haciendo lo mismo que yo

A5
Rompiendo la ley, rompiendo la ley
Rompiendo la ley, rompiendo la ley
Rompiendo la ley, rompiendo la ley
Rompiendo la ley, rompiendo la ley

SOLO: B5 - A5

 D5     F5    C5   D5    F5    G5    D5    F5    C5    D5    F5    G5
¡Tú no sabes cómo es...!

e|--------------------------------------------------------|
B|--------------------------------------------------------|
G|--------------------------------------------------------| X4
D|--------------------------------------------------------|
A|--0--2--3--0--2--3--0--2--3--------0--------0--0--3--2--|
E|-----------------------------1--3-----1--3--------------|

A5                                 F5  G5  A5
Rompiendo la ley, rompiendo la ley
                                   F5  G5  A5
Rompiendo la ley, rompiendo la ley
                                   F5  G5  A5
Rompiendo la ley, rompiendo la ley
                                   F5  G5  A5
Rompiendo la ley, rompiendo la ley

            
            
Suggest correction
Creating personal tab
Creating personal tab
You can edit any tab online and save it as your Personal.

You can edit, replace or remove any tab part or add personal notes – all changes will be seen only by you.

Personal tabs can be accessed anytime from any device, even offline.
Learn more »
Give kudos to tab author, rate the tab!
1 2 3 4 5
comments
print report bad tab
guest
Wanna post a correction for this tab? Suggest correction