Oops, an error
Loading. Please wait.

Girls Of Porn tab

version 1
version 1

Whole song

Interactive

12,358 views 12 this week
1 commentread comment
1 2 3 4 5
x 5
add to favorites
×
Save as Personal and add changes to this tab that will be seen only by you. Learn more ›
×
You can save this tab as Personal to edit and correct it or add notes. All changes will be seen only by you. Learn more »
launch autoscroll
font size
0
reset
how to read this tab
guitar tuner
edit
Autoscroll
slow
fast
+/-
esc
set tempo
stop
Difficulty
intermediate
 - Girls Of Porn.
   Performed By Mr.Bungle.
   The Album Mr.Bungle.
   Transcribed By Diego Correa G.


 e|-15---15---15---15---15-15-15------------------------------|  
 B|-x----x----x----x----x--x--x-------------------------------|
 G|-12---12---12---12---12-12-12------------------------------|
 D|-----------------------------------------------------------| x4
 A|-----------------------------------------------------------|
 E|-----------------------------------------------------------|


 e|-----------------------------------------------------------|  
 B|-----------------------------------------------------------|
 G|--------------------------------------------------3--------|
 D|-3-x-3-x-3-2-x-x--3-x--3-2----3-x-3-2--3-2-----------------| 
 A|--------------------------------------------3-4-5----------|
 E|-----------------------------------------------------------|

 
 e|-----------------------------------------------------------|  
 B|-----------------------------------------------------------|
 G|-----------------------------------------------------------|
 D|-3-x-3-x-3-2-x-x--3-x--3-2----3-x-3-x-3-2--3-2-------------| 
 A|-----------------------------------------------------------|
 E|-----------------------------------------------------------|

 
 e|-----------------------------------------------------------|  
 B|-----------------------------------------------------------|
 G|-----------------------------------------------------------|
 D|-3---4---5-5----------------------5-5----------------------| 
 A|-3---4-------------3-5-4-3-----------------3-5-4-3---------|
 E|-1---2--------3-6----------6-3---------3-6---------6-3----|

 
 e|-----------------------------------------------------------|  
 B|-----------------------------------------------------------|
 G|-----------------------------------------------------------|
 D|-5-5---------------------5-5-------------------------------| 
 A|---------3-5-4-3------------------3-5-4-3------------------|
 E|-----3-6---------6-3----------3-6---------6-3--------------|


 e|-3-x-x-3-x----3-3-3-3-3-4-5-x-5---5-5-5-x-x-6-6-6-x-5-5-5--|  
 B|-4-x-x-4-x----4-4-4-4-4-5-6-x-6---6-6-6-x-x-7-7-7-x-6-6-6--|
 G|-3-x-x-3-x----3-3-3-3-3-4-5-x-5---5-5-5-x-x-6-6-6-x-5-5-5--| x6
 D|-5-x-x-5-x----5-5-5-5-5-6-7-x-7---7-7-7-x-x-8-8-8-x-7-7-7--| 
 A|-----------------------------------------------------------|
 E|-----------------------------------------------------------|


 e|-----------------------------------------------------------|  
 B|-----------------------------------------------------------|
 G|-----------------------------------------------------------|
 D|-----------------------------------------------------------| 
 A|-----------------------------------------------------------|
 E|-0---0-0----0---0-0----0---0-0----0---0-0------------------|

 e|-----------------------------------------------------------|  
 B|-----------------------------------------------------------|
 G|-----------------------------------------------------------|
 D|-------------------------------------------5---------------| 
 A|-5-x-5-7-x-x-5-7--5-x-5-7--5-x-5-7-------------5-7---------|
 E|-------------------------------------5-6-7---7-------------|

 e|-----------------------------------------------------------|  
 B|-----------------------------------------------------------|
 G|-----------------------------------------------------------|
 D|-----------------------------------------------------------| 
 A|-5-x-5-7-x-x-5-7--5-x-5-7--5-x-5-7----5-x-5-7--------------|
 E|-----------------------------------------------------------|
 
 e|-------------------------------------------15--------------|  
 B|---------------------------------------------15-----15---15|
 G|------------------------------------------------17*---17*--|
 D|-------------------7-9**-----------------------------------| 
 A|-----------------------------------------------------------|
 E|-5--5-6-7--3--0-0---------5--5-6-7--3--0-0-----------------|

 e|-----------------------------------------------------------|  
 B|-----------------------------------------------------------|
 G|-----------------------------------------------------------|
 D|-----------------------------------------------------------| 
 A|-----------------------------------------------------------|
 E|-5--5-6-7--3--0-0----5-6-7-7----5--5-6-7--3--0-0-----------|
 

 e|-----------------------------------------------------------|  
 B|-----------------------------------------------------------|
 G|-----------------------------------------------------------|
 D|-3---4---5-5----------------------5-5----------------------| 
 A|-3---4-------------3-5-4-3-----------------3-5-4-3---------|
 E|-1---2--------3-6----------6-3---------3-6---------6-3----|

 
 e|-----------------------------------------------------------|  
 B|-----------------------------------------------------------|
 G|-----------------------------------------------------------|
 D|-5-5---------------------5-5-------------------------------| 
 A|---------3-5-4-3------------------3------------------------|
 E|-----3-6---------6-3----------3-6----1-1-------------------|

 
 e|-3-x-x-3-x----3-3-3-3-3-4-5-x-5---5-5-5-x-x-6-6-6-x-5-5-5--|  
 B|-4-x-x-4-x----4-4-4-4-4-5-6-x-6---6-6-6-x-x-7-7-7-x-6-6-6--|
 G|-3-x-x-3-x----3-3-3-3-3-4-5-x-5---5-5-5-x-x-6-6-6-x-5-5-5--| x6
 D|-5-x-x-5-x----5-5-5-5-5-6-7-x-7---7-7-7-x-x-8-8-8-x-7-7-7--| 
 A|-----------------------------------------------------------|
 E|-----------------------------------------------------------|

**************************SOLO*********************************
 
 e|-----------------------------------------------------------|  
 B|-----------------------------------------------------------|
 G|-----------------------------------------------------------| X5
 D|-----------------------------------------------------------| 
 A|-----------------------------------------------------------|
 E|-0---0-0----0---0-0----0---0-0----0---0-0------------------|
 

 e|-----------------------------------------------------------|  
 B|-----------------------------------------------------------|
 G|-----------------------------------------------------------|
 D|-----------------------------------------------------------| X4
 A|-----------------------------------------------------------|
 E|--0-0---0-0---0-0---0-0---0-0---0-0------------------------|

 e|-------------------------------------------15--------------|  
 B|---------------------------------------------15-----15---15|
 G|------------------------------------------------17*---17*--|
 D|-------------------7-9**-----------------------------------| 
 A|-----------------------------------------------------------|
 E|-5--5-6-7--3--0-0---------5--5-6-7--3--0-0-----------------|

 e|-----------------------------------------------------------|  
 B|-----------------------------------------------------------|
 G|-----------------------------------------------------------|
 D|-----------------------------------------------------------| 
 A|-----------------------------------------------------------|
 E|-5--5-6-7--3--0-0----5-6-7-7----5--5-6-7--3--0-0-----------|
 
 e|-----------------------------------------------------------|  
 B|-----------------------------------------------------------|
 G|-----------------------------------------------------------| X2 
 D|-----------------------------------------------------------| 
 A|-----------------------------------------------------------|
 E|-5--5-6-7--3--0-0---------5--5-6-7--3--0-0-----------------|

 e|-----------------------------------------------------------|  
 B|-----------------------------------------------------------|
 G|-----------------------------------------------------------|
 D|-3---4---5-5----------------------5-5----------------------| 
 A|-3---4-------------3-5-4-3-----------------3-5-4-3---------|
 E|-1---2--------3-6----------6-3---------3-6---------6-3-----|

 
 e|-----------------------------------------------------------|  
 B|-----------------------------------------------------------|
 G|-----------------------------------------------------------|
 D|-5-5---------------------5-5-------------------------------| 
 A|---------3-5-4-3------------------3------------------------|
 E|-----3-6---------6-3----------3-6--------------------------|

 e|-----------------------------------------------------------|  
 B|-----------------------------------------------------------|
 G|-----------------------------------------------------------|
 D|-3---4---5-5----------------------5-5----------------------| 
 A|-3---4-------------3-5-4-3-----------------3-5-4-3---------|
 E|-1---2--------3-6----------6-3---------3-6---------6-3-----|

 
 e|-----------------------------------------------------------|  
 B|-----------------------------------------------------------|
 G|-----------------------------------------------------------|
 D|-5-5---------------------5-5-------------------------------| 
 A|---------3-5-4-3------------------3------------------------|
 E|-----3-6---------6-3----------3-6--------------------------|

 e|-----------------------------------------------------------|  
 B|-----------------------------------------------------------|
 G|-----------------------------------------------------------|
 D|-3-4-5-6---5-5----------------------5-5--------------------| 
 A|-3-4-5-6------------3-5-4-3-----------------3-5-4-3--------|
 E|-1-2-3-4------3-6----------6-3---------3-6---------6-3-----|

 
 e|-----------------------------------------------------------|  
 B|-----------------------------------------------------------|
 G|-----------------------------------------------------------|
 D|-5-5---------------------5-5-------------------------------| 
 A|---------3-5-4-3------------------3------------------------|
 E|-----3-6---------6-3----------3-6--------------------------|

 e|-----------------------------------------------------------|  
 B|-----------------------------------------------------------|
 G|-----------------------------------------------------------|
 D|-3---4---5-5----------------------5-5----------------------| 
 A|-3---4-------------3-5-4-3-----------------3-5-4-3---------|
 E|-1---2--------3-6----------6-3---------3-6---------6-3-----|

 
 e|-----------------------------------------------------------|  
 B|-----------------------------------------------------------|
 G|-----------------------------------------------------------|
 D|-5-5---------------------5-5-------------------------------| 
 A|---------3-5-4-3------------------3------------------------|
 E|-----3-6---------6-3----------3-6--------------------------|

 e|-----------------------------------------------------------|  
 B|-----------------------------------------------------------|
 G|-----------------------------------------------------------|
 D|-3-4-5-6-7-7-7-7-7-7-7-7-7-8-8-8-8-8-8-8-8-8-9-9-9-9-9-9-9-| 
 A|-3-4-5-6-7-7-7-7-7-7-7-7-7-8-8-8-8-8-8-8-8-8-9-9-9-9-9-9-9-|
 E|-1-2-3-4-5-5-5-5-5-5-5-5-5-6-6-6-6-6-6-6-6-6-7-7-7-7-7-7-7-|

 e|-----------------------------------------------------------|  
 B|-----------------------------------------------------------|
 G|-----------------------------------------------------------|
 D|-5-7-5-7-5-7-5-7-5-7-5-7-5-7-7****---7-5-------------------| 
 A|-----------------------------------------------------------|
 E|-----------------------------------------------------------|


 Comments/ corrections email to dgo.rck@gmail.com / elahio@hotmail.com

            
            
Suggest correction
Creating personal tab
Creating personal tab
You can edit any tab online and save it as your Personal.

You can edit, replace or remove any tab part or add personal notes – all changes will be seen only by you.

Personal tabs can be accessed anytime from any device, even offline.
Learn more »
comments
print report bad tab
1 comment total.
0 reply
Gugnums 173 Sep 09, 2009 05:02 PM

awesome. i loved this tab

guest
Wanna post a correction for this tab? Suggest correction