Oops, an error
Loading. Please wait.

Retrovertigo chords

version 2
version 2

Whole song

  • This is a nice-sounding arrangement of Mr. Bungle'... Show more
  • This interpretation of "Retrovertigo" uses the C H... Show more

Interactive

17,229 views 24 this week
3 commentsread comments
1 2 3 4 5
x 7
add to favorites
×
Save as Personal and add changes to this tab that will be seen only by you. Learn more ›
×
You can save this tab as Personal to edit and correct it or add notes. All changes will be seen only by you. Learn more »
launch autoscroll
font size
0
reset
transpose
0
reset
simplify chords
display chords
guitar tuner
edit
Autoscroll
slow
fast
+/-
esc
set tempo
stop
Author
Difficulty
Strumming
There is no strumming pattern for this song yet. and get +5 IQ
    ________________
   / Mr. Bungle    /
  / Retrovertigo  /
 / California    /
/_______________/


 Intro:
|| C | Ab+5 :|| 4x



 Verse:
||: Dm/A | Dsus2-5/G# :|| 3x

| C | F# | E+5 | E7 |



 Verse



 Chorus:
||: Am  Am/G | F7 | Am  Am/G | F7 |

                    1.
| Am  Am/G | D9/F# | G  E/G# :||

 2.
| Fm6 |



 Interlude:
| C | Ab+5 | C | Ab+5 |



 Glockspiel Solo:
| C | Ab+5 | C | Ab+5 |

||: Dm/A | Dsus2-5/G# :|| 3x



 Bridge:
| Fm | C | Am | G# |

| Fm | C | Am | G# | G# |

| C | F# | E+5 | E7 |



 Chorus:
||: Am  Am/G | F7 | Am  Am/G | F7 |

                    1.
| Am  Am/G | D9/F# | G  E/G# :||

 2.
| Fm6maj7  Fm ...



****************************************************************************

  When C and Ab+5 are notated, play this particular riff.
   C                   C/G   Ab+5                C/G
 |-0-----0-----0---0-0-----|-------------------------|
 |-1-----1-----1---1-1-1---|-1-----1-----1-----1-1---|
 |-0-----0-----0---0-0-0---|-1-----1-----1-----1-0---|
 |-2-----2-----2---2-2-2---|-2-----2-----2-----2-2---|
 |-3-----3-----3---3-3-x---|-3-----3-----3-----3-x---|
 |---------------------3---|-4-----4-----4-----4-3---|

 (Verse)                                      (Bridge)
    Dm/A  Dsus2-5/G#     C    F#   E+5   E7       Fm   C    Am   G#
e:---1--------0------ ---0----2-----0----0---- ---1----0----0----4----:
B:---3--------3------ ---1----2-----1----3---- ---1----1----1----4----:
G:---2--------1------ ---0----3-----1----1---- ---1----0----2----5----:
D:------------------- ---2----4-----2----2---- ---3----2----2----6----:
A:------------------- ---3----4-----x----x---- ---3----3----0----6----:
E:------------------- --------2-----0----0---- ---1--------------4----:

 (Chorus)
     Am   Am/G   F   D/F#   G   E/G#   Fm6     Fm6maj7   Fm
 :---0-----0-----1---------------0------1---- ----0------1----:
 :---1-----1-----1----3-----0----0------3---- ----3------1----:
 :---2-----2-----2----2-----0----1------1---- ----1------1----:
 :---2-----2-----3----0-----0----2------3---- ----3------3----:
 :---0-----x-----3----x-----x----x------3---- -----------3----:
 :---------3-----1----2-----3----4------1---- -----------1----:



 LYRICS
**********
Before you advertise
All the fame is implied
With no fortune unseen
Sell the right to your blight
Time-machine

While I'm dulled by excess
And a cynic at best
My art imitates crime
Paid for by the allies
So invest

Now I'm finding truth is a ruin
Nauseous end that nobody is pursuing
Staring into glassy eyes
Mesmerized

There's a vintage thirst returning
But I'm sheltered by my channel-surfing
Every famine virtual
Retrovertigo

A tribute to false memories
With conviction
Cheap imitation
Is it fashion or disease?
Post-ironic
Remains a mouth to feed

Sell the right to your blight
And you'll eat

Now I'm finding truth is a ruin
Nauseous end that nobody is pursuing
Staring into glassy eyes
Mesmerized

See the vintage robot wearied
Then awakened by revision theories
Every famine virtual
Retrovertigo



------------------------------------------------------------------------------
 8th /November /09
 Just mail me at Maitinin@gmail.com with questions, comments and corrections!
------------------------------------------------------------------------------



 " Maitinin writing here - the author of this tab.

   The past 11 years, I have generated 10,318,000 views and 815 top-rated tabs for this site.
   If you want to support an eager contributor like me, check out my own site:


   _____  http://www.PlayLikeTheGreats.com  _____


   Here I will continue to upload and improve my transcriptions.

   Best regards,
   Maitinin

   July, 2015 "

            
            
Suggest correction
Creating personal tab
Creating personal tab
You can edit any tab online and save it as your Personal.

You can edit, replace or remove any tab part or add personal notes – all changes will be seen only by you.

Personal tabs can be accessed anytime from any device, even offline.
Learn more »
comments
print report bad tab
3 comments total.
0 reply
Lord Of Donkeys 230 Nov 08, 2009 08:20 AM

Great tab man!

The way the UG chord system works makes this tab look really bad, but the chords at the bottom are right.

0 reply
Seanie McDonald 75 Apr 06, 2013 01:08 AM

Agreed.Very happy to find this.

0 reply
FinderofNemo 337 Feb 06, 2015 11:18 PM

The first and best version, dunno why so many others bothered honestly

guest
You may want to rate the tab now too:
select rating
Wanna post a correction for this tab? Suggest correction