Oops, an error
Loading. Please wait.

Be Wind My Friend tab

898 views 12 this week
no commentswrite comment
1 2 3 4 5
x 3
add to favorites
×
Save as Personal and add changes to this tab that will be seen only by you. Learn more ›
×
You can save this tab as Personal to edit and correct it or add notes. All changes will be seen only by you. Learn more »
launch autoscroll
font size
0
reset
how to read this tab
guitar tuner
edit
Autoscroll
slow
fast
+/-
esc
set tempo
stop
Author
Difficulty
x2 Slight variation between the two times played
e|----------------------------------------|
B|----------------------------------------|
G|----------------------------------------|
D|-----9-9s11s9p7---7-9-9s11--------------|
A|---9------------9----------9--5-9s7~5---|
E|-7--------------------------------------|

e|---------------------------------------------------------------------
B|----------------5--------------5-------------------------------------
G|--2s4-0-6-0-7-0---4--0-6-0-7-0---7-4-0-6--6p4--6s7p6-----------------
D|---------------------------------------------------------------------
A|------------------------------------------------------9-5s4----------
E|------------------------------------------------------------7-5-7s9--

--------------------------------10-10--5-5-----|
------------5--------------5----10-10--5-5--3--|
--0-6-0-7-0---4--0-6-0-7-0------------------4--|
-----------------------------------------------|
-----------------------------------------------|
-----------------------------------------------|

Same thing here, some slight variations.
e|----------------------------------------|
B|----------------------------------------|
G|----------------------------------------|
D|-----9-9s11s9p7---7-7s9-9s11------------|
A|---9------------9-----------9--5-9s7~5--|
E|-7--------------------------------------|

e|----------------------------------------------------------------------
B|----------------5--------------5--------------------------------------
G|--2s4-0-6-0-7-0---4--0-6-0-7-0---7-4-0-6--6p4--6s7p6------------------
D|----------------------------------------------------------------------
A|------------------------------------------------------9-5s4-----------
E|------------------------------------------------------------7-5-7s9---

-------------------------------10-10--5-5-----|
-----------5--------------5----10-10--5-5--3--|
-0-6-0-7-0---4--0-6-0-7-0------------------4--|
----------------------------------------------|
----------------------------------------------|
----------------------------------------------|

e|---------------------------------------------------------------------------|
B|----------7h8--------------------------------------------------------------|
G|------9-------7----7s5-------5---5s4-------4---7---2-------2----2----------|
D|----9---9-------9------5---5---5-----5---5---5---5---5---5---5---5---------|
A|--7----------------------7-------------5---------------5-------------------|
E|---------------------------------------------------------------------------|

e|--------------------------------------------------------s19-s22--s19p17s15s14-----|
B|----------7h8------8s10-8------s12-----------------s15------------------------15--|
G|------9-------7-----------7--------11---------s12---------------------------------|
D|----9---9-------9-----------9---------12------------------------------------------|
A|--7--------------------------------------14---------------------------------------|
E|----------------------------------------------------------------------------------|

e|---------------------------------3-5-s7-------------------------------|
B|-------------------------------3-------7------------------------------|
G|--999--7-7s9-12s7-9----------4----------7s4---4-----------------------|
D|--999--7-7s9-12s7-9--------5-------------------4----------------------|
A|--777--------------------5----------------------5s2-------------------|
E|----------------------s3----------------------------------------------|

e|-----------------------------------------------------------|
B|----------7h8----------------------------------------------|
G|------9-------7----7s5-------5---5s4-------4---7----2~-----|
D|----9---9-------9------5---5---5-----5---5---5---5--5~-----|
A|--7----------------------7-------------5------------5~-----|
E|-----------------------------------------------------------|

After this there's a section without much guitar. Mika plays something like this occasionally:

e|-----------|
B|---11------|
G|---13b15~--|
D|-----------|
A|-----------|
E|-----------|

And ends the mid-section with:

e|--------------|
B|--------------|
G|---14s12------|
D|---------14~--|
A|--------------|
E|--------------|

Right about here the guitar kicks in again and pretty much repeats what's above.

If anyone finds any errors or have improvements, then just leave a comment or PM me.

************************************

| x   Dead note
| g   Grace note
| (n) Ghost note
| h   Hammer-on
| p   Pull-off
| r   Release
| >   Accented note
| t   Tapping
| b   Bend
| br  Bend release
| pb  Pre-bend
| pbr Pre-bend release
| /   Slide up
| \   Slide down
| ~   Vibrato
| s   Slap
| P   Pop
| PM  Palm mute
| TR  Trill
| N   Tremolo

************************************

            
            
Suggest correction
Creating personal tab
Creating personal tab
You can edit any tab online and save it as your Personal.

You can edit, replace or remove any tab part or add personal notes – all changes will be seen only by you.

Personal tabs can be accessed anytime from any device, even offline.
Learn more »
Give kudos to tab author, rate the tab!
1 2 3 4 5
comments
print report bad tab
guest
You may want to rate the tab now too:
select rating
Wanna post a correction for this tab? Suggest correction