Oops, an error
Loading. Please wait.

Let Me In tab

by MrNorth
119 views 1 this week
1 commentread comment
1 2 3 4 5
2 more votes to show rating
add to favorites
×
Save as Personal and add changes to this tab that will be seen only by you. Learn more ›
×
You can save this tab as Personal to edit and correct it or add notes. All changes will be seen only by you. Learn more »
launch autoscroll
font size
0
reset
how to read this tab
guitar tuner
edit
Autoscroll
slow
fast
+/-
esc
set tempo
stop
Author
Difficulty
http://www.mrnorthmusic.com/

-Ryan Mackie

  pt 1                     pt 2                     Chorus
                            (first)
 (intro)                          (Second)      Are you gonna...
-2--3--3----------2-------2---0-------3---------2--3--3---|
-1--1--3----------2-------1---0-------5---------1--1--3---|
-2--0--5--(x4)---------2------0-(x2)--5---------2--0--5---|
-0--2--5--------5----0--------0-------4---------0--2--5---|
-0--0--3------------------------------3---------0--0--3---|
-------------5------------------------3-------------------|

Intro (same as pt 1)
pt 1
pt 2
Chorus
pt 1
pt 2
Chorus
pt 2 (instead of doing eiether the first ending of the second ending, do this)

----------------|
----------------|
-2------4-------|
-3-(x8)-5-(x8)--|(all that x2)
-3------5-------|
-1------3-------|

then this little interlude comes in

-----------------------7--------------------------5-|
----7--7--8--8--10-10---10-8-7--5--5--7--7--8--8----|
--7--7--7--7--7---7--7-----------5--5--5--5--5--5---|
----------------------------------------------------|
----------------------------------------------------|
----------------------------------------------------|

------------------------5------|
-8-7-5-5--5--7--7--8--8--8-7-5-|
--------5--5--5--5--5--5-------|
-------------------------------|
-------------------------------|
-------------------------------|


Chorus (x2)
pt 2 (end on second ending chord)

            
            
Suggest correction
Creating personal tab
Creating personal tab
You can edit any tab online and save it as your Personal.

You can edit, replace or remove any tab part or add personal notes – all changes will be seen only by you.

Personal tabs can be accessed anytime from any device, even offline.
Learn more »
Give kudos to tab author, rate the tab!
1 2 3 4 5
comments
print report bad tab
1 comment total.
0 reply
Shwax 256 Jan 03, 2010 05:28 PM, edited on July 6 2014, 07:14 pm

the interlude sounds almost 100% correct, but the rest of it is definitely off a little - it's a Cadd9 (x3203x) not a barre-C chord in the main chord progression among other problems.

And if that's a G chord under "second," you've got it flipped...

guest
You may want to rate the tab now too:
select rating
Wanna post a correction for this tab? Suggest correction