Oops, an error
Loading. Please wait.

Two More Years Remix bass

1,215 views 1 this week
1 commentread comment
1 2 3 4 5
1 last vote to show rating
add to favorites
×
Save as Personal and add changes to this tab that will be seen only by you. Learn more ›
×
You can save this tab as Personal to edit and correct it or add notes. All changes will be seen only by you. Learn more »
launch autoscroll
font size
0
reset
guitar tuner
edit
Autoscroll
slow
fast
+/-
esc
set tempo
stop
Author
Difficulty
Song: Two More Years (remix)
Artist: Mstrkrft
Original Artist: Bloc Party
Tabbed By: Jaden Sherrard

Main Riff
G|-----3-3----------------|
D|-3-3-----0-0--0-0--0-0--|
A|------------------------|
E|------------------------|


Ending One
G|---------------5h6h7-7--6h7p6-7-|
D|-3-3--5-5--0--------------------|
A|--------------------------------|
E|--------------------------------|


            
            
Suggest correction
Creating personal tab
Creating personal tab
You can edit any tab online and save it as your Personal.

You can edit, replace or remove any tab part or add personal notes – all changes will be seen only by you.

Personal tabs can be accessed anytime from any device, even offline.
Learn more »
Give kudos to tab author, rate the tab!
1 2 3 4 5
comments
print report bad tab
1 comment total.
0 reply
nicklopeke 31 May 03, 2009 01:19 PM

ending one is wrong, should be...

G|----------------7-7--567-|
D|-3-3--5-5--0-0---0-------|
A|-------------------------|
E|--------------------------------|

guest
You may want to rate the tab now too:
select rating
Wanna post a correction for this tab? Suggest correction