Oops, an error
Loading. Please wait.

Metaphor tab

1,033 views 36 this week
no commentswrite comment
1 2 3 4 5
x 3
add to favorites
×
Save as Personal and add changes to this tab that will be seen only by you. Learn more ›
×
You can save this tab as Personal to edit and correct it or add notes. All changes will be seen only by you. Learn more »
launch autoscroll
font size
0
reset
how to read this tab
guitar tuner
edit
Autoscroll
slow
fast
+/-
esc
set tempo
stop
[Intro]
(Guitar 1)
e|--------------------------|--------------------------|--------------------------|--------------------------|
B|--------------------------|--------------------------|--------------------------|--------------------------|
G|--------------------------|--------------------------|--------------------------|--------------------------|
D|--9--9--9--9--9--9--9--9--|--9--9--9--9--9--9--4--4--|--6--6--6--6--6--6--6--6--|--6--6--6--6--6--6--6--6--|
A|--------------------------|--------------------------|--------------------------|--------------------------|
E|--------------------------|--------------------------|--------------------------|--------------------------|

(Guitar 1)
e|--------------------------|--------------------------|--------------------------|--------------------------|
B|--------------------------|--------------------------|--------------------------|--------------------------|
G|--------------------------|--------------------------|--------------------------|--------------------------|
D|--9--9--9--9--9--9--9--9--|--9--9--9--9--9--9--4--4--|--6--6--6--6--6--6--6--6--|--6--4--4--4--4--2--2--2--|
A|--------------------------|--------------------------|--------------------------|--------------------------|
E|--------------------------|--------------------------|--------------------------|--------------------------|

(Guitar 2 comes in)

(Guitar 1)
e|--------------------------|--------------------------|--------------------------|--------------------------|
B|--------------------------|--------------------------|--------------------------|--------------------------|
G|--------------------------|--------------------------|--------------------------|-----4-----6-----4-----4--|
D|--9--9--9--9--9--9--9--9--|--9--9--9--9--9--9--4--4--|--6--6--6--6--6--6--6--6--|--6-----6-----6-----6-----|
A|--------------------------|--------------------------|--------------------------|--------------------------|
E|--------------------------|--------------------------|--------------------------|--------------------------|

(Guitar 2)
e|--------------------------|--------------------------|--------------------------|--------------------------|
B|--------------------------|--------------------------|--------------------------|--------------------------|
G|--------------------------|--------------------------|--------------------------|--------------------------|
D|--------------------------|-----------------6-----6--|--------------------------|--------------------------|
A|--7-----7-----7-----7-----|--7-----7-----7-----7-----|--7-----7-----7-----7-----|--7-----7-----7-----7-----|
E|--------------------------|--------------------------|--------------------------|--------------------------|

(Guitar 1)
e|--------------------------|--------------------------|--------------------------|--------------------------|
B|--------------------------|--------------------------|--------------------------|--------------------------|
G|--------------------------|--------------------------|--------------------------|--------------------------|
D|--9--9--9--9--9--9--9--9--|--9--9--9--9--9--9--4--4--|--6--6--6--6--6--6--6--6--|--6--4--4--4--4--2--2--2--|
A|--------------------------|--------------------------|--------------------------|--------------------------|
E|--------------------------|--------------------------|--------------------------|--------------------------|

(Guitar 2)
e|--------------------------|--------------------------|--------------------------|--------------------------|
B|--------------------------|--------------------------|--------------------------|--------------------------|
G|--------------------------|--------------------------|--------------------------|--------------------------|
D|--------------------------|-----6-----6-----6-----6--|--------------------------|--------------------------|
A|--7-----7-----7-----7-----|--7-----7-----7-----7-----|--7-----7-----7-----7-----|--7-----7-----7-----7-----|
E|--------------------------|--------------------------|--------------------------|--------------------------|

(Guitar 1)
e|--------------------------|--------------------------|--------------------------|--------------------------|
B|--------------------------|--------------------------|--------------------------|--------------------------|
G|--------------------------|--------------------------|--------------------------|--------------------------|
D|--9--9--9--9--9--9--9--9--|--9--9--9--9--9--9--4--4--|--6--6--6--6--6--6--6--6--|--6--6--6--6--6--6--6--6--|
A|--------------------------|--------------------------|--------------------------|--------------------------|
E|--------------------------|--------------------------|--------------------------|--------------------------|

(Guitar 2)
e|--------------------------|--------------------------|--------------------------|--------------------------|
B|--------------------------|--------------------------|--------------------------|--------------------------|
G|-----9--8--6-----6-----6--|-----9--8--6-----6-----6--|-----9--8--6-----6-----6--|-----9--8--8--6--6--------|
D|--------------9-----7-----|--------------9-----7-----|--------------9-----7-----|--------------------9--9--|
A|--7-----------------------|--7-----------------------|--7-----------------------|--7-----------------------|
E|--------------------------|--------------------------|--------------------------|--------------------------|

(Guitar 1)
e|--------------------------|--------------------------|--------------------------|--------------------------|
B|--------------------------|--------------------------|--------------------------|--------------------------|
G|--------------------------|--------------------------|--------------------------|--------------------------|
D|--9--9--9--9--9--9--9--9--|--9--9--9--9--9--9--4--4--|--6--6--6--6--6--6--6--6--|--6--4--4--4--4--2--2--2--|
A|--------------------------|--------------------------|--------------------------|--------------------------|
E|--------------------------|--------------------------|--------------------------|--------------------------|

(Guitar 2)
e|--------------------------|--------------------------|--------------------------|--------------------------|
B|--------------------------|--------------------------|--------------------------|--------------------------|
G|-----9--8--6-----6-----6--|-----9--8--6-----6-----6--|-----9--8--6-----6-----6--|--9--9--8--8--6--6--------|
D|--------------9-----7-----|--------------9-----7-----|--------------9-----7-----|--------------------9-----|
A|--7-----------------------|--7-----------------------|--7-----------------------|--------------------------|
E|--------------------------|--------------------------|--------------------------|--------------------------|

(Guitar 1)
e|--------------------------|--------------------------|--------------------------|--------------------------|
B|--------------------------|--------------------------|--------------------------|--------------------------|
G|--------------------------|--------------------------|--------------------------|--------------------------|
D|--9--9--9--9--9--9--9--9--|--9--9--9--9--9--9--4--4--|--6--6--6--6--6--6--6--6--|--6--6--6--6--6--6--6--6--|
A|--------------------------|--------------------------|--------------------------|--------------------------|
E|--------------------------|--------------------------|--------------------------|--------------------------|

(Guitar 2)
e|--------------------------|--------------------------|--------------------------|--------------------------|
B|--------------------------|--------------------------|--------------------------|--------------------------|
G|-----9--8--6-----6-----6--|-----9--8--6-----6-----6--|-----9--8--6-----6-----6--|--9--9--8--8--6--6--------|
D|--------------9-----7-----|--------------9-----7-----|--------------9-----7-----|--------------------9-----|
A|--7-----------------------|--7-----------------------|--7-----------------------|--------------------------|
E|--------------------------|--------------------------|--------------------------|--------------------------|

(Guitar 1)
e|--------------------------|--------------------------|--------------------------|--------------------------|
B|--------------------------|--------------------------|--------------------------|--------------------------|
G|--------------------------|--------------------------|--------------------------|--------------------------|
D|--9--9--9--9--9--9--9--9--|--9--9--9--9--9--9--4--4--|--6--6--6--6--6--6--6--6--|--6--4--4--4--4--2--2--2--|
A|--------------------------|--------------------------|--------------------------|--------------------------|
E|--------------------------|--------------------------|--------------------------|--------------------------|

(Guitar 2)
e|--------------------------|--------------------------|--------------------------|--------------------------|
B|--------------------------|--------------------------|--------------------------|--------------------------|
G|-----9--8--6-----6-----6--|-----9--8--6-----6-----6--|-----9--8--6-----6-----6--|--9--9--8--8--6--6--------|
D|--------------9-----7-----|--------------9-----7-----|--------------9-----7-----|--------------------9-----|
A|--7-----------------------|--7-----------------------|--7-----------------------|--------------------------|
E|--------------------------|--------------------------|--------------------------|--------------------------|

(Guitar 1)
e|--------------------------|--------------------------|--------------------------|--------------------------|
B|--------------------------|--------------------------|--------------------------|--------------------------|
G|--------------------------|--------------------------|--------------------------|-----4-----6-----4-----4--|
D|--9--9--9--9--9--9--9--9--|--9--9--9--9--9--9--4--4--|--6--6--6--6--6--6--6--6--|--6-----6-----6-----6-----|
A|--------------------------|--------------------------|--------------------------|--------------------------|
E|--------------------------|--------------------------|--------------------------|--------------------------|

(Guitar 2)
e|--------------------------|--------------------------|--------------------------|--------------------------|
B|--------------------------|--------------------------|--------------------------|--------------------------|
G|-----9--8--6-----6-----6--|-----9--8--6-----6-----6--|-----9--8--6-----6-----6--|--9--9--8--8--6--6--------|
D|--------------9-----7-----|--------------9-----7-----|--------------9-----7-----|--------------------9--9--|
A|--7-----------------------|--7-----------------------|--7-----------------------|--------------------------|
E|--------------------------|--------------------------|--------------------------|--------------------------|

(Guitar 1)
e|--------------------------|--------------------------|--------------------------|--------------------------|
B|--------------------------|--------------------------|--------------------------|--------------------------|
G|--------------------------|--------------------------|--------------------------|--------------------------|
D|--9--9--9--9--9--9--9--9--|--9--9--9--9--9--9--4--4--|--6--6--6--6--6--6--6--6--|--6--4--4--4--4--2--2--2--|
A|--------------------------|--------------------------|--------------------------|--------------------------|
E|--------------------------|--------------------------|--------------------------|--------------------------|

(Guitar 2)
e|--------------------------|--------------------------|--------------------------|--------------------------|
B|--------------------------|--------------------------|--------------------------|--------------------------|
G|-----9--8--6-----6-----6--|-----9--8--6-----6-----6--|-----9--8--6-----6-----6--|--9--9--8--8--6--6--------|
D|--------------9-----7-----|--------------9-----7-----|--------------9-----7-----|--------------------9-----|
A|--7-----------------------|--7-----------------------|--7-----------------------|--------------------------|
E|--------------------------|--------------------------|--------------------------|--------------------------|

[Pre-Verse]
e|--------------------------|--------------------------|
B|--------------------------|--------------------------|
G|--8--8--8--8--8--8--8--8--|--8--8--8--8--8--8--8--8--|
D|--9--9--9--9--9--9--9--9--|--9--9--9--9--9--9--9--9--|
A|--7--7--7--7--7--7--7--7--|--7--7--7--7--7--7--7--7--|
E|--------------------------|--------------------------|
                                                                          (x2)
e|----------------------------------|-----5--5--5--5--5--5--5--|
B|----------------------------------|-----5--5--5--5--5--5--5--|
G|----------------------------------|-----6--6--6--6--6--6--6--|
D|--11--11--11--11--11--11--11--11--|-----7--7--7--7--7--7--7--|
A|---7---7---7---7---7---7---7---7--|-----7--7--7--7--7--7--7--|
E|----------------------------------|-----5--5--5--5--5--5--5--|

[Verse]
e|--------------------------|--------------------------|
B|--------------------------|--------------------------|
G|--8--8--8--8--8--8--8--8--|--8--8--8--8--8--8--8--8--|
D|--9--9--9--9--9--9--9--9--|--9--9--9--9--9--9--9--9--|
A|--7--7--7--7--7--7--7--7--|--7--7--7--7--7--7--7--7--|
E|--------------------------|--------------------------|
                                                                          (x4)
e|----------------------------------|-----5--5--5--5--5--5--5--|
B|----------------------------------|-----5--5--5--5--5--5--5--|
G|----------------------------------|-----6--6--6--6--6--6--6--|
D|--11--11--11--11--11--11--11--11--|-----7--7--7--7--7--7--7--|
A|---7---7---7---7---7---7---7---7--|-----7--7--7--7--7--7--7--|
E|----------------------------------|-----5--5--5--5--5--5--5--|

  I'm so tired of all your shit
  I'm just trying to grow in the head
  We should be laughing now, you're trying to show me how
  You're sitting next to me but in my head this sounds crazy but

[Chorus]
(Add some dead notes where appropriate)
e|--0--0--0--0--0--0--0--0--|--0--0--0--0--0--0--0--0--|
B|--0--0--0--0--0--0--0--0--|--0--0--0--0--0--0--0--0--|
G|--1--1--1--1--1--1--1--1--|--1--1--1--1--1--1--1--1--|
D|--2--2--2--2--2--2--2--2--|--2--2--2--2--2--2--2--2--|
A|--2--2--2--2--2--2--2--2--|--2--2--2--2--2--2--2--2--|
E|--0--0--0--0--0--0--0--0--|--0--0--0--0--0--0--0--0--|
                                                            (x4)
e|--5--5--5--5--5--5--5--5--|--5--5--5--5--5--5--5--5--|
B|--5--5--5--5--5--5--5--5--|--5--5--5--5--5--5--5--5--|
G|--6--6--6--6--6--6--6--6--|--6--6--6--6--6--6--6--6--|
D|--7--7--7--7--7--7--7--7--|--7--7--7--7--7--7--7--7--|
A|--7--7--7--7--7--7--7--7--|--7--7--7--7--7--7--7--7--|
E|--5--5--5--5--5--5--5--5--|--5--5--5--5--5--5--5--5--|

  Move over little closer than before, and
  Fingers touch near your wrist, it's a metaphor
  Shoes off and your socks laying on the floor
  I don't wanna be the one to say goodnight first

[Interlude]
e|------------7---------|------------7---------|------------7---------|------------7---------|
B|------------9---------|------------9---------|------------9---------|------------9---------|
G|--9----9----9------9--|--9----9----9------9--|--9----9----9------9--|--9----9----9------9--|
D|--9----9----9------9--|--9----9----9------9--|--9----9----9------9--|--9----9----9------9--| (x2)
A|--7----7----7------7--|--7----7----7------7--|--7----7----7------7--|--7----7----7------7--|
E|----------------------|----------------------|----------------------|----------------------|

e|------------7---------|------------7---------|------------7---------|------------7---------|
B|------------9---------|------------9---------|------------9---------|------------9---------|
G|--9----9----9------9--|--9----9----9------9--|--9----9----9------9--|--9----9----9------9--|
D|--9----9----9------9--|--9----9----9------9--|--9----9----9------9--|--9----9----9------9--| (x2)
A|--7----7----7------7--|--7----7----7------7--|--7----7----7------7--|--7----7----7------7--|
E|----------------------|----------------------|----------------------|----------------------|

  I think I got something for ya
  I think I spoke too soon, cause oh my

e|------------5---------|------------5---------|------------5---------|------------5---------|
B|------------5---------|------------5---------|------------5---------|------------5---------|
G|------------6---------|------------6---------|------------6---------|------------6---------|
D|--7----7----7------7--|--7----7----7------7--|--7----7----7------7--|--7----7----7------7--| (x2)
A|--7----7----7------7--|--7----7----7------7--|--7----7----7------7--|--7----7----7------7--|
E|--5----5----5------5--|--5----5----5------5--|--5----5----5------5--|--5----5----5------5--|

  God. It's like you
  talking, but dying at the same timeng new, cause I'm

e|------------7---------|------------7---------|------------7---------|------------7---------|
B|------------9---------|------------9---------|------------9---------|------------9---------|
G|--9----9----9------9--|--9----9----9------9--|--9----9----9------9--|--9----9----9------9--|
D|--9----9----9------9--|--9----9----9------9--|--9----9----9------9--|--9----9----9------9--| (x2)
A|--7----7----7------7--|--7----7----7------7--|--7----7----7------7--|--7----7----7------7--|
E|----------------------|----------------------|----------------------|----------------------|

  weird, my words don't rhyme. It's like I'm
  talking, but dying at the same time

e|------------5---------|------------5---------|------------5---------|------------5---------|
B|------------5---------|------------5---------|------------5---------|------------5---------|
G|------------6---------|------------6---------|------------6---------|------------6---------|
D|--7----7----7------7--|--7----7----7------7--|--7----7----7------7--|--7----7----7------7--|
A|--7----7----7------7--|--7----7----7------7--|--7----7----7------7--|--7----7----7------7--|
E|--5----5----5------5--|--5----5----5------5--|--5----5----5------5--|--5----5----5------5--|

  oh shit

e|------------5---------|------------5---------|----------------------|-----------5--5--5--5-|
B|------------5---------|------------5---------|----------------------|-----------5--5--5--5-|
G|------------6---------|------------6---------|----------------------|-----------6--6--6--6-|
D|--7----7----7------7--|--7----7----7----x-x--|--7--x--x--7--x-x--7--|--7----7---7--7--7--7-|
A|--7----7----7------7--|--7----7----7----x-x--|--7--x--x--7--x-x--7--|--7----7---7--7--7--7-|
E|--5----5----5------5--|--5----5----5----x-x--|--5--x--x--5--x-x--5--|--5----5---5--5--5--5-|

[Verse]
e|--------------------------|--------------------------|
B|--------------------------|--------------------------|
G|--8--8--8--8--8--8--8--8--|--8--8--8--8--8--8--8--8--|
D|--9--9--9--9--9--9--9--9--|--9--9--9--9--9--9--9--9--|
A|--7--7--7--7--7--7--7--7--|--7--7--7--7--7--7--7--7--|
E|--------------------------|--------------------------|
                                                                          (x4)
e|----------------------------------|-----5--5--5--5--5--5--5--|
B|----------------------------------|-----5--5--5--5--5--5--5--|
G|----------------------------------|-----6--6--6--6--6--6--6--|
D|--11--11--11--11--11--11--11--11--|-----7--7--7--7--7--7--7--|
A|---7---7---7---7---7---7---7---7--|-----7--7--7--7--7--7--7--|
E|----------------------------------|-----5--5--5--5--5--5--5--|

  I'm so tired of all your shit
  I'm just trying to grow in the head
  We should be laughing now, you're trying to show me how
  You're sitting next to me but in my head this sounds crazy but

[Chorus]
 (Add some dead notes where appropriate)
e|--0--0--0--0--0--0--0--0--|--0--0--0--0--0--0--0--0--|
B|--0--0--0--0--0--0--0--0--|--0--0--0--0--0--0--0--0--|
G|--1--1--1--1--1--1--1--1--|--1--1--1--1--1--1--1--1--|
D|--2--2--2--2--2--2--2--2--|--2--2--2--2--2--2--2--2--|
A|--2--2--2--2--2--2--2--2--|--2--2--2--2--2--2--2--2--|
E|--0--0--0--0--0--0--0--0--|--0--0--0--0--0--0--0--0--|
                                                            (x4)
e|--5--5--5--5--5--5--5--5--|--5--5--5--5--5--5--5--5--|
B|--5--5--5--5--5--5--5--5--|--5--5--5--5--5--5--5--5--|
G|--6--6--6--6--6--6--6--6--|--6--6--6--6--6--6--6--6--|
D|--7--7--7--7--7--7--7--7--|--7--7--7--7--7--7--7--7--|
A|--7--7--7--7--7--7--7--7--|--7--7--7--7--7--7--7--7--|
E|--5--5--5--5--5--5--5--5--|--5--5--5--5--5--5--5--5--|

  Move over little closer than before, and
  Fingers touch near your wrist, it's a metaphor
  Shoes off and your socks laying on the floor
  I don't wanna be the one to say goodnight first

[Ending]
e|--0--|
B|--0--|
G|--1--|
D|--2--|
A|--2--|
E|--0--|



************************************

| x  Dead note
| (x
| )

************************************

            
            
Suggest correction
Creating personal tab
Creating personal tab
You can edit any tab online and save it as your Personal.

You can edit, replace or remove any tab part or add personal notes – all changes will be seen only by you.

Personal tabs can be accessed anytime from any device, even offline.
Learn more »
Give kudos to tab author, rate the tab!
1 2 3 4 5
comments
print report bad tab
guest
You may want to rate the tab now too:
select rating
Wanna post a correction for this tab? Suggest correction