Oops, an error
Loading. Please wait.

Animal tab

version 1
version 1

Whole song

by Mudmen
943 views 1 this week
no commentswrite comment
1 2 3 4 5
2 more votes to show rating
add to favorites
×
Save as Personal and add changes to this tab that will be seen only by you. Learn more ›
×
You can save this tab as Personal to edit and correct it or add notes. All changes will be seen only by you. Learn more »
launch autoscroll
font size
0
reset
how to read this tab
guitar tuner
edit
Autoscroll
slow
fast
+/-
esc
set tempo
stop
Author
Difficulty
Artist: Mudmen
Song: Animal
Album: Overrated

Tuning: First DROP-D then all strings HALF-STEP DOWN! (from low to high: Db, Ab, Db, Gb, Bb, eb)

(This song was featured on "Burnout 3".)

-------------------------------------------

Chorus:

    Eb5   Gb5  Db5
eb------------------------------------------------------|
Bb------------------------------------------------------|
Gb------------------------------------------------------|
Db---2----5----0----------------------------------------|
Ab---2----5----0----------------------------------------|
Db---2----5----0----------------------------------------|

Pre-Chorus:
     Gb5   Bb5   Ab5
eb-----------------------------------------------------|
Bb-----------------------------------------------------|
Gb-----------------------------------------------------|
Db----5----9-----7-------------------------------------|
Ab----5----9-----7-------------------------------------|
Db----5----9-----7-------------------------------------|

[Chorus]:
Eb5      Gb5 Db5
Hello, hello, I'm just an animal
Eb5          Gb5    Db5
And I don't feel no pain
Eb5     Gb5    Db5
I know, I know, I'll be the last to go
Eb5         Gb5      Db5
Cuz I don't feel the same

Verse:
I don't know much, I don't feel touch
I don't need anything; I don't have pride to make me fall
I don't need youth, I don't plead truth
I don't feel like offering; anyway out of here at all

[Pre-Chorus]:
Gb5     Bb5   Ab5
I won't fade away

[Chorus]:
Hello, hello, I'm just an animal
And I don't feel no pain
I know, I know, I'll be the last to go
Cuz I don't feel the same

Verse:
I don't know want, I don't want that
I just know suffering; there's nothing left behind the wall
And I've been used, I've been abused
I just feel menacing; they tore me up and let me fall

[Pre-Chorus]
Gb5     Bb5     Ab5
I don't feel no pain
Gb5     Bb5   Ab5
I won't fade away

[Chorus]:
Hello, hello, I'm just an animal
And I don't feel no pain
I know, I know, I'll be the last to go
Cuz I don't feel the same

[Chorus]:
Hello, hello, I'm just an animal
I'm pathological, I'm uncontrollable
Lost in the protocol, I'm just a criminal,
I wanna make you crawl, I'm gonna burn it all
Till there's nothing left to call, Your fuck'n animal

-----------------------

And that's the basics of the song. I was thinking of tabbing out the bag-pipe-melody for 
but didn't have the will to do so, i'll guess i'll  do it sometime in the future...

            
            
Suggest correction
Creating personal tab
Creating personal tab
You can edit any tab online and save it as your Personal.

You can edit, replace or remove any tab part or add personal notes – all changes will be seen only by you.

Personal tabs can be accessed anytime from any device, even offline.
Learn more »
Give kudos to tab author, rate the tab!
1 2 3 4 5
comments
print report bad tab
guest
You may want to rate the tab now too:
select rating
Wanna post a correction for this tab? Suggest correction