Oops, an error
Loading. Please wait.
We have an official Death Blooms tab made by UG professional guitarists. Check out the tab »
×
24,580 views 24 this week
21 commentsread comments
1 2 3 4 5
x 7
add to favorites
×
Save as Personal and add changes to this tab that will be seen only by you. Learn more ›
×
You can save this tab as Personal to edit and correct it or add notes. All changes will be seen only by you. Learn more »
launch autoscroll
font size
0
reset
guitar tuner
edit
Autoscroll
slow
fast
+/-
esc
set tempo
stop
There's a lot of time signature changes from bar to bar that make the tab look a little disjointed from
the bridge onwards but you should be able to follow along with the notatons.

https://www.youtube.com/watch?v=dGeRCeUWzUk

[Intro]
    s s s s s s s s s s s s s s s s   s s s s s s s s s s s s s s s s   s s s s s s s s s s s s s s s s
E |-----------------5-----5-----5---|-----------------5-----5-----5---|-----------------5-----5-----5---|
B |-------------------5-----5-----0-|-------------------5-----5-----5-|-------------------5-----5-----5-|
F#|---------------------5-----5-----|---------------------5-----5-----|---------------------5-----5-----|
B |-3-2-2-3-2-2-2-------------------|-3-2-2-3-2-2-2-------------------|-3-2-2-3-2-2-2-------------------|

    s s s s s s s s s s s s s E     s s s s s s s s s s s s s s s s   s s s s s s s s s s s s s s s s
E |---------------5-----5---------|---------------------------------|---------------------------------|
B |-----------------5-----5-------|---------------------------------|---------------------------------|
F#|-------------------5-----0-13\-|---------------------------------|---------------------------------|
B |-3-2-2-3-2-2-2-----------------|-0-7-8-0-7-8-0-7-8-0-5-0-3-5-2-0-|-0-7-8-0-7-8-0-7-8-0-5-0-3-5-2-0-|

    s s s s s s s s s s s s s s s s   s s s s s s s s s s s s s s s s   s s s s s s s s q E s s
E |---------------------------------|---------------------------------|-------------------------|
B |---------------------------------|---------------------------------|-------------------------|
F#|---------------------------------|---------------------------------|-------------------------|
B |-0-7-8-0-7-8-0-7-8-0-5-0-3-5-2-0-|-0-7-8-0-7-8-0-7-8-0-5-0-3-5-2-0-|-3-2-0-3-5-0-2-3-----2-2-|

[Verse]
    s s s s s s s s q E s s   s s s s s s s s q E s s   s s s s s s s s q E s s 
E |-------------------------|-------------------------|-------------------------|
B |-------------------------|-------------------------|-------------------------|
F#|-------------------------|-------------------------|-------------------------|
B |-3-2-0-3-5-0-2-3-------2-|-3-2-0-3-5-0-2-3-----2-2-|-3-2-0-3-5-0-2-3-------2-|

    s s s s s s s s s s s s s s s s
E |---------------------------------|
B |---------------------------------|
F#|---------------------------------|
B |-3-2-0-2-3-0-3-2-3-2-0-3-5-0-2-3-|

[Chorus]
    s s s s s s s s s s s s s s s s   s s s s s s s s s s s s s s s s   s s s s s s s s s s s s s s s s
E |---------------------------------|---------------------------------|---------------------------------|
B |---------------------------------|---------------------------------|---------------------------------|
F#|-3-----3-------------------------|-3-----3-------------------------|-3-----3-------------------------|
B |---2-2---2-2-3-2-2-3-2-2-3-2-0-2-|---2-2---2-2-3-2-2-3-2-2-3-2-0-3-|---2-2---2-2-3-2-2-3-2-2-3-2-0-2-|

    s s s s s s s s s s s s s s s s   s s s s s s s s q E s s
E |---------------------------------|-------------------------|
B |---------------------------------|-------------------------|
F#|-3-----3-------------------------|-------------------------|
B |---2-2---2-2-3-2-2-3-2-2-3-2-0-2-|-3-2-0-3-5-0-2-3-----2-2-|

[Verse 2]
    s s s s s s s s q E s s   s s s s s s s s q E s s   s s s s s s s s q E s s 
E |-------------------------|-------------------------|-------------------------|
B |-------------------------|-------------------------|-------------------------|
F#|-------------------------|-------------------------|-------------------------|
B |-3-2-0-3-5-0-2-3-------2-|-3-2-0-3-5-0-2-3-----2-2-|-3-2-0-3-5-0-2-3-------2-|

    s s s s s s s s s s s s s s s s
E |---------------------------------|
B |---------------------------------|
F#|---------------------------------|
B |-3-2-0-2-3-0-3-2-3-2-0-3-5-0-2-3-|

[Chorus 2]
    s s s s s s s s s s s s s s s s   s s s s s s s s s s s s s s s s   s s s s s s s s s s s s s s s s
E |---------------------------------|---------------------------------|---------------------------------|
B |---------------------------------|---------------------------------|---------------------------------|
F#|-3-----3-------------------------|-3-----3-------------------------|-3-----3-------------------------|
B |---2-2---2-2-3-2-2-3-2-2-3-2-0-2-|---2-2---2-2-3-2-2-3-2-2-3-2-0-3-|---2-2---2-2-3-2-2-3-2-2-3-2-0-2-|

    s s s s s s s s s s s s s s s s   s s s s s s s s s s s s s s s s
E |---------------------------------|---------------------------------|
B |---------------------------------|---------------------------------|
F#|-3-----3-------------------------|---------------------------------|
B |---2-2---2-2-3-2-2-3-2-2-3-2-0-2-|-0-7-8-0-7-8-0-7-8-0-5-0-3-5-2-0-|

[Post Chorus]
    s s s s s s s s s s s s s s s s   s s s s s s s s s s s s s s   s s s s s s s s s s s s s s s s
E |---------------------------------|-----7-----7-----5-----5---3-|---------------------------------|
B |---------------------------------|---7-----7-----5-----5-------|---------------------------------|
F#|---------------------------------|-5-----5-----3-----3-----1---|---------------------------------|
B |-0-7-8-0-7-8-0-7-8-0-5-0-3-5-2-0-|-----------------------------|-0-7-8-0-7-8-0-7-8-0-5-0-3-5-2-0-|

    s s s s s s s s s s s s s s  s  s s  E    s s s s s s s s s s s s s s s s   s s s s s s s s s s s s s s
E |-----7-----7-----9-----9------10------10-|---------------------------------|-----7-----7-----5-----5---3-|
B |---7-----7-----9-----9-----10------10----|---------------------------------|---7-----7-----5-----5-------|
F#|-5-----5-----7-----7-----8-------8-------|---------------------------------|-5-----5-----3-----3-----1---|
B |-----------------------------------------|-0-7-8-0-7-8-0-7-8-0-5-0-3-5-2-0-|-----------------------------|

    s s s s s s s s s s s s s s s s   s s s s s s s s s s s s s  s  E    q
E |---------------------------------|-----7-----7-----9-----9-------15-|---|
B |---------------------------------|---7-----7-----9-----9------15----|---|
F#|---------------------------------|-5-----5-----7-----7-----13-------|---|
B |-0-7-8-0-7-8-0-7-8-0-5-0-3-5-2-0-|----------------------------------|-0-|

[Bridge]
    s s s s s s s s s s s s E E    s s s s s s s s s s s s E E    s s s s s s s s s s s s E E
E |-------7---x-------x---x-7-7/-|-------7---x-------x---x-7-7/-|-------7---x-------x---x-7-7/-|
B |-------------------------7-7/-|-------------------------7-7/-|-------------------------7-7/-|
F#|-0h5-x---x---0h5-x---x--------|-0h5-x---x---0h5-x---x--------|-0h5-x---x---0h5-x---x--------|
B |------------------------------|------------------------------|------------------------------|

    s s s s s s s s s s s s E E    s s s s s s s s s s s s E E    s s s s s s s s s s s s E E
E |-------7---x-------x---x-7-7/-|-------7---x-------x---x-7-7/-|-------7---x-------x---x-7-7/-|
B |-------------------------7-7/-|-------------------------7-7/-|-------------------------7-7/-|
F#|-0h5-x---x---0h5-x---x--------|-0h5-x---x---0h5-x---x--------|-0h5-x---x---0h5-x---x--------|
B |------------------------------|------------------------------|------------------------------|

    E s s s s s s E s s s s s s   s s s s s  E. E  E  s    E s s s s s s E s s s s s s
E |-----------------------------|-----------/10-10-10-+\-|-----------------------------|
B |-----------------------------|------------------------|-----------------------------|
F#|-----------------------------|-----------/8--8--8--+\-|-----------------------------|
B |-3-2-0-2-0-2-3---2-0-2-0-3---|-2-0-2-0-0--------------|-3-2-0-2-0-2-3---2-0-2-0-3---|

    s s s s s  E. E  E  s    E s s s s s s E s s s s s s   s s s s s  E. E  E  s
E |-----------/10-10-10-+\-|-----------------------------|-----------/10-10-10-+\-|
B |------------------------|-----------------------------|------------------------|
F#|-----------/8--8--8--+\-|-----------------------------|-----------/8--8--8--+\-|
B |-2-0-2-0-0--------------|-3-2-0-2-0-2-3---2-0-2-0-3---|-2-0-2-0-0--------------|

    s s s s s s s s s s s s E E    s s s s s s s s s s s s E E    s s s s s s s s s s s s E E
E |-------7---x-------x---x-7-7/-|-------7---x-------x---x-7-7/-|-------7---x-------x---x-7-7/-|
B |-------------------------7-7/-|-------------------------7-7/-|-------------------------7-7/-|
F#|-0h5-x---x---0h5-x---x--------|-0h5-x---x---0h5-x---x--------|-0h5-x---x---0h5-x---x--------|
B |------------------------------|------------------------------|------------------------------|

    s s s s s s s s s s s s E E    s s s s s s s s s s s s E E    s s s s s s s s s s s s E E
E |-------7---x-------x---x-7-7/-|-------7---x-------x---x-7-7/-|-------7---x-------x---x-7-7/-|
B |-------------------------7-7/-|-------------------------7-7/-|-------------------------7-7/-|
F#|-0h5-x---x---0h5-x---x--------|-0h5-x---x---0h5-x---x--------|-0h5-x---x---0h5-x---x--------|
B |------------------------------|------------------------------|------------------------------|

    E. E. E h   s s s s s s s s s s E q   E. E. E  h   s s s s s s s s s s E q   E. E. E h
E |-7--5--4-+-|-------------------------|-7--9-/12-+-|-------------------------|-7--5--4-+-|
B |-----------|-------------------------|------------|-------------------------|-----------|
F#|-5--3--2-+-|-------------------------|-5--7-/10-+-|-------------------------|-5--3--2-+-|
B |-----------|-3p0-0-3p0-0-3p0-0-0-----|------------|-3p0-0-3p0-0-3p0-0-0-----|-----------|

    s s s s s s s s s s E q   E. E. E  h   s s s s s s s s s s E q   s s s s s s s s s E q
E |-------------------------|-7--9--12-+-|-------------------------|-----------------------|
B |-------------------------|------------|-------------------------|-----------------------|
F#|-------------------------|-5--7--10-+-|-------------------------|-----------------------|
B |-3p0-0-3p0-0-3p0-0-0-----|------------|-3p0-0-3p0-0-3p0-0-0-----|-3p0-3p0-0-3p0-0-0-----|

    s s s s s s s s s s E q   s s s s s s s s s E q   s s s s s s s s s E s s E   s s s s s s s s E s s E
E |-------------------------|-----------------------|-------------------------5-|-----------------------5-|
B |-------------------------|-----------------------|---------------------------|-------------------------|
F#|-------------------------|-----------------------|-------------------------3-|-----------------------3-|
B |-3p0-0-3p0-0-3p0-0-0-----|-3p0-3p0-0-3p0-0-0-----|-3p0-3p0-0-3p0-0-0---x-x---|-3p0-3p0-3p0-0-0---x-x---|

    s s s s s s s s s E s s E   s s s s s s s s E s s E   s s s s s s s s s E s s E
E |-------------------------5-|-----------------------5-|-------------------------5-|
B |---------------------------|-------------------------|---------------------------|
F#|-------------------------3-|-----------------------3-|-------------------------3-|
B |-3p0-3p0-0-3p0-0-0---x-x---|-3p0-3p0-3p0-0-0---x-x---|-3p0-3p0-0-3p0-0-0---x-x---|

    s s s s s s s s s E s s E   s s s s s s s s E s s E   s s s s s s s s s E s s E
E |-------------------------5-|-----------------------5-|-------------------------5-|
B |---------------------------|-------------------------|---------------------------|
F#|-------------------------3-|-----------------------3-|-------------------------3-|
B |-3p0-3p0-0-3p0-0-0---x-x---|-3p0-3p0-3p0-0-0---x-x---|-3p0-3p0-0-3p0-0-0---x-x---|

    s s s s s s s s s E s s E    s s s s s s s s s E s s E    s s s s s s s s s E s s E
E |-------------------------10-|-------------------------12-|-------------------------14-|
B |----------------------------|----------------------------|----------------------------|
F#|-------------------------8--|-------------------------10-|-------------------------12-|
B |-3p0-0-3p0-0-3p0-0h3/x-x----|-3p0-0-3p0-0-3p0-0h3/x-x----|-3p0-0-3p0-0-3p0-0h3/x-x----|

    s s s s s s s s   w   w 
E |-----------------|---|---|
B |-----------------|---|---|
F#|-----------------|---|---|
B |-3p0-0-3p0-0-3p0-|-0-|-+-|

[Chorus 3]
    s s s s s s s s s s s s s s s s   s s s s s s s s s s s s s s s s   s s s s s s s s s s s s s s s s
E |---------------------------------|---------------------------------|---------------------------------|
B |---------------------------------|---------------------------------|---------------------------------|
F#|-3-----3-------------------------|-3-----3-------------------------|-3-----3-------------------------|
B |---2-2---2-2-3-2-2-3-2-2-3-2-0-2-|---2-2---2-2-3-2-2-3-2-2-3-2-0-3-|---2-2---2-2-3-2-2-3-2-2-3-2-0-2-|

    s s s s s s s s s s s s s s s s   s s s s s s s s s s s s s s s s   s s s s s s s s s s s s s s s s
E |---------------------------------|---------------------------------|---------------------------------|
B |---------------------------------|---------------------------------|---------------------------------|
F#|-3-----3-------------------------|-3-----3-------------------------|-3-----3-------------------------|
B |---2-2---2-2-3-2-2-3-2-2-3-2-0-2-|---2-2---2-2-3-2-2-3-2-2-3-2-0-3-|---2-2---2-2-3-2-2-3-2-2-3-2-0-2-|

    s s s s s s s s s s s s s s s s   s s s s s s s s s s s s s s s s
E |---------------------------------|---------------------------------|
B |---------------------------------|---------------------------------|
F#|-3-----3-------------------------|-3-----3-------------------------|
B |---2-2---2-2-3-2-2-3-2-2-3-2-0-2-|---2-2---2-2-3-2-2-3-2-2-3-2-0-2-|

[Post Chorus]
    s s s s s s s s s s s s s s s s   s s s s s s s s s s s s s s   s s s s s s s s s s s s s s s s
E |---------------------------------|-----7-----7-----5-----5---3-|---------------------------------|
B |---------------------------------|---7-----7-----5-----5-------|---------------------------------|
F#|---------------------------------|-5-----5-----3-----3-----1---|---------------------------------|
B |-0-7-8-0-7-8-0-7-8-0-5-0-3-5-2-0-|-----------------------------|-0-7-8-0-7-8-0-7-8-0-5-0-3-5-2-0-|

    s s s s s s s s s s s s s s  s  s s  E    s s s s s s s s s s s s s s s s   s s s s s s s s s s s s s s
E |-----7-----7-----9-----9------10------10-|---------------------------------|-----7-----7-----5-----5---3-|
B |---7-----7-----9-----9-----10------10----|---------------------------------|---7-----7-----5-----5-------|
F#|-5-----5-----7-----7-----8-------8-------|---------------------------------|-5-----5-----3-----3-----1---|
B |-----------------------------------------|-0-7-8-0-7-8-0-7-8-0-5-0-3-5-2-0-|-----------------------------|

    s s s s s s s s s s s s s s s s   s s s s s s s s s s s s s  s  E    s s s s s s s s s s s s s s s s
E |---------------------------------|-----7-----7-----9-----9-------15-|---------------------------------|
B |---------------------------------|---7-----7-----9-----9------15----|---------------------------------|
F#|---------------------------------|-5-----5-----7-----7-----13-------|---------------------------------|
B |-0-7-8-0-7-8-0-7-8-0-5-0-3-5-2-0-|----------------------------------|-0-7-8-0-7-8-0-7-8-0-5-0-3-5-2-0-|

    s s s s s s s s s s s s s s   s s s s s s s s s s s s s s s s   s s s s s s s s  s  s s  E
E |-----7-----7-----5-----5---3-|---------------------------------|-----7-----7------10------10-|
B |---7-----7-----5-----5-------|---------------------------------|---7-----7-----10------10----|
F#|-5-----5-----3-----3-----1---|---------------------------------|-5-----5-----8-------8-------|
B |-----------------------------|-0-7-8-0-7-8-0-7-8-0-5-0-3-5-2-0-|-----------------------------|

    s s s s s s s s s s s s s s s s   s s s s s s s s s s s s s s   s s s s s s s s s s s s s s s s
E |---------------------------------|-----7-----7-----5-----5---3-|---------------------------------|
B |---------------------------------|---7-----7-----5-----5-------|---------------------------------|
F#|---------------------------------|-5-----5-----3-----3-----1---|---------------------------------|
B |-0-7-8-0-7-8-0-7-8-0-5-0-3-5-2-0-|-----------------------------|-0-7-8-0-7-8-0-7-8-0-5-0-3-5-2-0-|

    s s s s s s s s s s s s s  s  E
E |-----7-----7-----9-----9-------15-|
B |---7-----7-----9-----9------15----|
F#|-5-----5-----7-----7-----13-------|
B |----------------------------------|

[Outro]
    s s s s s s s s   s s s s E s E s E s s s s   s E s s t t E   s s s s s s s   s E s E s s s s s s 
E |-----------------|---------------------------|-------------5-|---------------|---------------------|
B |-----------------|---------------------------|---------------|---------------|---------------------|
F#|-----------------|---------------------------|-------------3-|---------------|---------------------|
B |-3-2-0-3-5-2-0-3-|-0-0---0---0---0---0---3-2-|-0---0---0-0---|-3-0-0-3-5-0-0-|-0---0---0---3-2-3-5-|

    s s s s s s E   s s s s s s s s   s s s s E s E s E s s s s   s E s s t t E   s s s s s s s
E |-------------5-|-----------------|---------------------------|-------------5-|---------------|
B |---------------|-----------------|---------------------------|---------------|---------------|
F#|-------------3-|-----------------|---------------------------|-------------3-|---------------|
B |-0-0---0---0---|-3-2-0-3-5-2-0-3-|-0-0---0---0---0---0---3-2-|-0---0---0-0---|-3-0-0-3-5-0-0-|

    s E s E s s s s s s   s s s s s s E
E |---------------------|-------------5-|
B |---------------------|-------------4-|
F#|---------------------|-------------3-|
B |-0---0---0---3-2-3-5-|-0-0---0---0---|

************************************

| x   Dead note
| h   Hammer-on
| p   Pull-off
| /   Slide up
| \   Slide down
| +   Held note
| s   Sixteenth note
| E   Eighth note
| q   Quarter note
| h   Half note
| w   Whole note
| t   Thirty secondth note 

************************************

            
            
Suggest correction
Creating personal tab
Creating personal tab
You can edit any tab online and save it as your Personal.

You can edit, replace or remove any tab part or add personal notes – all changes will be seen only by you.

Personal tabs can be accessed anytime from any device, even offline.
Learn more »
comments
print report bad tab
21 comments total. Showing first comments. show 1 bad comment
+2 reply
suite 30 Sep 30, 2003 08:00 PM

hey xfan2003 you\'re stupid!

0 reply
ambienceofone 10 Jan 04, 2004 07:00 PM

Mudvaynes bassist plays a five string throughout the whole L.D.50 album. I have there concert video, and I've seen them twice.

guest
You may want to rate the tab now too:
select rating
Wanna post a correction for this tab? Suggest correction