Oops, an error
Loading. Please wait.
2,873 views 1 this week
no commentswrite comment
1 2 3 4 5
1 last vote to show rating
add to favorites
×
Save as Personal and add changes to this tab that will be seen only by you. Learn more ›
×
You can save this tab as Personal to edit and correct it or add notes. All changes will be seen only by you. Learn more »
launch autoscroll
font size
0
reset
guitar tuner
edit
Autoscroll
slow
fast
+/-
esc
set tempo
stop
Author
Difficulty
5 string bass

to tune: Drop the B and E strings a step down, and then drop everything down 1.5 steps.

            ^          ^             ^          ^     
      E  E  Q    E  E  Q       E  E  Q    E  E  Q     
E ||--------3----------3----|--------3----------3----|
B ||--------2----------2----|--------2----------2----|
F#||------------------------|------------------------|
B ||--0--0-------0--0-------|--0--0-------0--0-------|
F#||--0--0-------0--0-------|--0--0-------0--0-------|


        ^          ^             ^          ^     
  E  E  Q    E  E  Q       E  E  Q    E  E  Q     
--------3----------3----|--------3----------3----|
--------2----------2----|--------2----------2----|
------------------------|------------------------|
--0--0-------0--0-------|--0--0-------0--0-------|
--0--0-------0--0-------|--0--0-------0--0-------|


        ^             ^                ^             ^      
  E  E  Q      E   E  Q         E   E  Q      E   E  Q      
--------3S----(9)-----9S----|--(3)-----3S----(9)-----9S----|
--------2S----(8)-----8S----|--(2)-----2S----(8)-----8S----|
----------------------------|------------------------------|
--0--0---------0---0--------|---0---0---------0---0--------|
--0--0---------0---0--------|---0---0---------0---0--------|


          ^             ^                ^             ^      
   E   E  Q      E   E  Q         E   E  Q      E   E  Q      
--(3)-----3S----(9)-----9S----|--(3)-----3S----(9)-----9S----|
--(2)-----2S----(8)-----8S----|--(2)-----2S----(8)-----8S----|
------------------------------|------------------------------|
---0---0---------0---0--------|---0---0---------0---0--------|
---0---0---------0---0--------|---0---0---------0---0--------|


   S  S E  Q    S S S S S S S S    S S E  Q    S S S S S S S S  
--(3)---------------------------|------------------------------|
--(2)---------------------------|------------------------------|
--------------------------------|------------------------------|
---2--3-2-------2-2-2-2-3-3-2-0-|--2-3-2-------2-2-2-2-3-3-2-0-|
--------------------------------|------------------------------|


                                                     ^      
  S S E  Q    S S S S S S S S    S S E   Q     E  E  Q      
------------------------------|----------------------9S----|
------------------------------|----------------------8S----|
------------------------------|----------------------------|
--2-3-2-------2-2-2-2-3-3-2-0-|--2-3-2---L/----0--0--------|
------------------------------|----------------0--0--------|


   S  S E  Q    S S S S S S S S    S S E  Q    S S S S S S S S  
--(3)---------------------------|------------------------------|
--(2)---------------------------|------------------------------|
--------------------------------|------------------------------|
---2--3-2-------2-2-2-2-3-3-2-0-|--2-3-2-------2-2-2-2-3-3-2-0-|
--------------------------------|------------------------------|


                                                     ^      
  S S E  Q    S S S S S S S S    S S E   Q     E  E  Q      
------------------------------|----------------------9S----|
------------------------------|----------------------8S----|
------------------------------|----------------------------|
--2-3-2-------2-2-2-2-3-3-2-0-|--2-3-2---L/----0--0--------|
------------------------------|----------------0--0--------|


   S  S E  Q    S S S S S S S S    S S E  Q    S S S S S S S S  
--(3)---------------------------|------------------------------|
--(2)---------------------------|------------------------------|
--------------------------------|------------------------------|
---2--3-2-------2-2-2-2-3-3-2-0-|--2-3-2-------2-2-2-2-3-3-2-0-|
--------------------------------|------------------------------|


                                                     ^     
  S S E  Q    S S S S S S S S    S S E   Q     E  E  Q     
------------------------------|----------------------9----|
------------------------------|----------------------8----|
------------------------------|---------------------------|
--2-3-2-------2-2-2-2-3-3-2-0-|--2-3-2---L/----0--0-------|
------------------------------|----------------0--0-------|


    S  S S S E   S S S S S S S S E     S  S S S E   S S S S S S S S S S  
|------------9S------x--------------|-----------9S------x---------------|
|*--0s-2---------------------0---2--|--0s-2-------------------0---3-5-2-|
|-----------------------------------|-----------------------------------|
|*-------x-x-----x-x---x-x-5---x----|-------x-x-----x-x---x-5---x-------|
|-----------------------------------|-----------------------------------|


  S  S S S E   S S S S E  S S E     S  S S S E   S S S S E  S S E     
-----------9S------x-------------|-----------9S----x-----7------9---||
--0s-2--------------------0---2--|--0s-2---------------------------*||
---------------------------------|----------------------------------||
-------x-x-----x-x---x-5----x----|-------x-x-----x---x-5----x-x----*||
---------------------------------|----------------------------------||


  S  S S S E   S S S S E  S S E     S S E  Q    S S S S S S S S  
-----------9S----x-----7------9--|------------------------------|
--0s-2---------------------------|------------------------------|
---------------------------------|------------------------------|
-------x-x-----x---x-5----x-x----|--2-3-2-------2-2-2-2-3-3-2-0-|
---------------------------------|------------------------------|


  S S E  Q    S S S S S S S S    S S E  Q    S S S S S S S S  
------------------------------|------------------------------|
------------------------------|------------------------------|
------------------------------|------------------------------|
--2-3-2-------2-2-2-2-3-3-2-0-|--2-3-2-------2-2-2-2-3-3-2-0-|
------------------------------|------------------------------|


                      ^                                       
  S S E   Q     E  E  Q         S  S E  Q    S S S S S S S S  
----------------------9S----|--(3)---------------------------|
----------------------8S----|--(2)---------------------------|
----------------------------|--------------------------------|
--2-3-2---L/----0--0--------|---2--3-2-------2-2-2-2-3-3-2-0-|
----------------0--0--------|--------------------------------|


  S S E  Q    S S S S S S S S    S S E  Q    S S S S S S S S  
------------------------------|------------------------------|
------------------------------|------------------------------|
------------------------------|------------------------------|
--2-3-2-------2-2-2-2-3-3-2-0-|--2-3-2-------2-2-2-2-3-3-2-0-|
------------------------------|------------------------------|


                      ^                                            
  S S E   Q     E  E  Q           S  S S S E   S S S S S S S S E   
----------------------9S----||---(0)-------9S------x--------------|
----------------------8S----||*---0s-2---------------------0---2--|
----------------------------||------------------------------------|
--2-3-2---L/----0--0--------||*--------x-x-----x-x---x-x-5---x----|
----------------0--0--------||------------------------------------|


  S  S S S E   S S S S S S S S S S    S  S S S E   S S S S E  S S E   
-----------9S------x---------------|-----------9S------x-------------|
--0s-2-------------------0---3-5-2-|--0s-2--------------------0---2--|
-----------------------------------|---------------------------------|
-------x-x-----x-x---x-5---x-------|-------x-x-----x-x---x-5----x----|
-----------------------------------|---------------------------------|


                    W                                                      
  S  S S S E   S S  S S S S S S S S      S  S S S E   S S S S E  S S   E   
-----------9S----x-12-L-L-L-L-L-L-L--||-----------9S------x----------/13--|
--0s-2------------------------------*||--0s-2--------------------0---/11--|
-------------------------------------||-----------------------------------|
-------x-x-----x----x-5---x-x---x-x-*||-------x-x-----x-x---x-5----x------|
-------------------------------------||-----------------------------------|


           |-3-|                                                    
  S  S  E  S S S E  S S S S S S S S    S S E  Q    S S S S S S S S  
-----L-12------x-7------7-----------|------------------------------|
-----L-11----x------------5---------|------------------------------|
----------------------------7-5-----|------------------------------|
--0--0-----x--------x-x---------7-5-|--2-3-2-------2-2-2-2-3-3-2-0-|
------------------------------------|------------------------------|


  S S E  Q    S S S S S S S S    S S E  Q    S S S S S S S S  
------------------------------|------------------------------|
------------------------------|------------------------------|
------------------------------|------------------------------|
--2-3-2-------2-2-2-2-3-3-2-0-|--2-3-2-------2-2-2-2-3-3-2-0-|
------------------------------|------------------------------|


                      ^                                       
  S S E   Q     E  E  Q         S  S E  Q    S S S S S S S S  
----------------------9S----|--(3)---------------------------|
----------------------8S----|--(2)---------------------------|
----------------------------|--------------------------------|
--2-3-2---L/----0--0--------|---2--3-2-------2-2-2-2-3-3-2-0-|
----------------0--0--------|--------------------------------|


  S S E  Q    S S S S S S S S    S S E  Q    S S S S S S S S  
------------------------------|------------------------------|
------------------------------|------------------------------|
------------------------------|------------------------------|
--2-3-2-------2-2-2-2-3-3-2-0-|--2-3-2-------2-2-2-2-3-3-2-0-|
------------------------------|------------------------------|


  S S E  Q    Q    Q       Q     Q     Q     Q     
--------------7----8----|--9----12----11----10----|
--------------7----8----|--9----12----11----10----|
--------------5----6----|--7----10-----9-----8----|
--2-3-2-----------------|-------------------------|
------------------------|-------------------------|


  S S E  Q    Q    Q       S S E  Q    Q    Q       S S E  Q    Q    Q     
------------------------|------------------------|------------------------|
------------------------|------------------------|------------------------|
------------------------|------------------------|------------------------|
--2-3-2-----------------|--2-3-2-----------------|--2-3-2-----------------|
------------------------|------------------------|------------------------|


  S S E  Q    Q    Q       S S E  E   E   E   E    S   S   S   S   
------------------------|-----------------------------------------|
------------------------|-----------------------------------------|
------------------------|-----------------------------------------|
--2-3-2-----------------|--2-3-2-----(x)-----(x)--(x)-(x)-(x)-(x)-|
------------------------|-----------------------------------------|


  S S E  E   E   E   E    S   S   S   S   
-----------------------------------------|
-----------------------------------------|
-----------------------------------------|
--2-3-2-----(x)-----(x)--(x)-(x)-(x)-(x)-|
-----------------------------------------|


  S S E  E   E   E   E    S   S   S   S   
-----------------------------------------|
-----------------------------------------|
-----------------------------------------|
--2-3-2-----(x)-----(x)--(x)-(x)-(x)-(x)-|
-----------------------------------------|


  S S E  E   E   E   E    S   S   S   S     E  E  Q    S S E  Q     
-----------------------------------------|-------------------------|
-----------------------------------------|-------------------------|
-----------------------------------------|-------------------------|
--2-3-2-----(x)-----(x)--(x)-(x)-(x)-(x)-|--2--2-------2-2-2-------|
-----------------------------------------|-------------------------|


  E  E  Q    S S E  Q       E  E  Q    E  E  Q     
-------------------------|--------3----------3----|
-------------------------|--------2----------2----|
-------------------------|------------------------|
--2--2-------2-2-2-------|--2--2-------2--2-------|
-------------------------|------------------------|


  E  E  Q    E  E  Q       E  E  Q      E   E  Q      
--------3----------3----|--------3S----(9)-----3S----|
--------2----------2----|--------2S----(8)-----2S----|
------------------------|----------------------------|
--2--2-------2--2-------|--2--2---------2---2--------|
------------------------|----------------------------|


   E   E  Q      E   E  Q       E  E  S S E  E  S S E  E   
--(9)-----3S----(9)-----9----|----------------------------|
--(8)-----2S----(8)-----8----|----------------------------|
-----------------------------|----------------------------|
---2---2---------2---2-------|--------5-6-5-----5-6-5-----|
-----------------------------|--7--7----------------------|


  S S E  E  S S E  E  S S E     E  E  S S E  E  S S E  E   
-----------------------------|----------------------------|
-----------------------------|----------------------------|
-----------------------------|----------------------------|
--5-6-5-----5-6-5-----5-6-5--|--------5-6-5-----5-6-5-----|
-----------------------------|--7--7----------------------|


  S S E  E  S S E  E  S S E     E  E  S S E  E  S S E  E   
-----------------------------|----------------------------|
-----------------------------|----------------------------|
-----------------------------|----------------------------|
--5-6-5-----5-6-5-----5-6-5--|--------5-6-5-----5-6-5-----|
-----------------------------|--7--7----------------------|


  S S E  E  S S E  E  S S E     E  E  S S E  E  S S E  E   
-----------------------------|----------------------------|
-----------------------------|----------------------------|
-----------------------------|----------------------------|
--5-6-5-----5-6-5-----5-6-5--|--------5-6-5-----5-6-5-----|
-----------------------------|--7--7----------------------|


  S S E  E  S S E  E  S S E     Q    Q    Q     Q     Q     Q     
-----------------------------|--7----8----9----12----11----10----|
-----------------------------|--7----8----9----12----11----10----|
-----------------------------|--5----6----7----10-----9-----8----|
--5-6-5-----5-6-5-----5-6-5--|-----------------------------------|
-----------------------------|-----------------------------------|


  S S E  Q    S S S S S S S S    S S E  Q    S S S S S S S S  
------------------------------|------------------------------|
------------------------------|------------------------------|
------------------------------|------------------------------|
--2-3-2-------2-2-2-2-3-3-2-0-|--2-3-2-------2-2-2-2-3-3-2-0-|
------------------------------|------------------------------|


                                                     ^      
  S S E  Q    S S S S S S S S    S S E   Q     E  E  Q      
------------------------------|----------------------9S----|
------------------------------|----------------------8S----|
------------------------------|----------------------------|
--2-3-2-------2-2-2-2-3-3-2-0-|--2-3-2---L/----0--0--------|
------------------------------|----------------0--0--------|


   S  S E  Q    S S S S S S S S    S S E  Q    S S S S S S S S  
--(3)---------------------------|------------------------------|
--(2)---------------------------|------------------------------|
--------------------------------|------------------------------|
---2--3-2-------2-2-2-2-3-3-2-0-|--2-3-2-------2-2-2-2-3-3-2-0-|
--------------------------------|------------------------------|


                                                     ^      
  S S E  Q    S S S S S S S S    S S E   Q     E  E  Q      
------------------------------|----------------------9S----|
------------------------------|----------------------8S----|
------------------------------|----------------------------|
--2-3-2-------2-2-2-2-3-3-2-0-|--2-3-2---L/----0--0--------|
------------------------------|----------------0--0--------|


   S  S E  Q    S S S S S S S S    S S E  Q    S S E  Q     
--(3)---------------------------|--------------------------|
--(2)---------------------------|--------------------------|
--------------------------------|--------------------------|
---2--3-2-------2-2-2-2-3-3-2-0-|--2-3-2-------2-3-2-------|
--------------------------------|--------------------------|


  S S S S S S S S S S E  Q       S S S S S S S S S S E  Q     
------------------------------|------------------------------|
------------------------------|------------------------------|
------------------------------|------------------------------|
--2-2-2-2-3-3-2-0-2-3-2-------|--2-2-2-2-3-3-2-0-2-3-2-------|
------------------------------|------------------------------|


                                       ^                                   
  S S S S S S S S S S E  Q       E  E  Q    H           W                  
------------------------------|--------9-------------|-------------------||
------------------------------|--------8-------------|-------------------||
------------------------------|----------------------|-------------------||
--2-2-2-2-3-3-2-0-2-3-2-------|--0--0----------------|-------------------||
------------------------------|--0--0----------------|-------------------||




Duration Legend
---------------
W - whole
H - half
Q - quarter
E - 8th
S - 16th
T - 32nd
X - 64th
. - note dotted
|-n-|  - n-tuplets


Tablature Legend
----------------
L - tied note
x - dead note
g - grace note
(n) - ghost note
> - accentuded note
NH - natural harmonic
AH - artificial harmonic
TH - tapped harmonic
SH - semi harmonic
PH - pitch harmonic
h - hammer on
p - pull off
b - bend
br - bendRelease
pb - preBend
pbr - preBendRelease
brb - bendReleaseBend
\n/ - tremolo bar dip
\n - tremolo bar dive
-/n - tremolo bar Release up
/n\ - tremolo bar inverted dip
/n - tremolo bar return
-\n - tremolo bar Release down
S - shift slide
s - legato slide
/ -  slide into from below or out of upwards
\ -  slide into from above or out of downwards
~ - vibrato
W - wide vibrato
tr - trill
TP - tremolo picking
T - tapping
S - slap
P - pop
< - fade in
^ - brush up
v - brush down

            
            
Suggest correction
Creating personal tab
Creating personal tab
You can edit any tab online and save it as your Personal.

You can edit, replace or remove any tab part or add personal notes – all changes will be seen only by you.

Personal tabs can be accessed anytime from any device, even offline.
Learn more »
Give kudos to tab author, rate the tab!
1 2 3 4 5
comments
print report bad tab
guest
You may want to rate the tab now too:
select rating
Wanna post a correction for this tab? Suggest correction