Oops, an error
Loading. Please wait.

Do What You Do bass

version 1
version 1

Whole song

Interactive

7,923 views 1 this week
1 commentread comment
1 2 3 4 5
2 more votes to show rating
add to favorites
×
Save as Personal and add changes to this tab that will be seen only by you. Learn more ›
×
You can save this tab as Personal to edit and correct it or add notes. All changes will be seen only by you. Learn more »
launch autoscroll
font size
0
reset
guitar tuner
edit
Autoscroll
slow
fast
+/-
esc
set tempo
stop
I know ryan uses a five string in this song but since i dont have a five string i play 
with a four string it sounds right to me this is also my first tab i know this is not 
correct but it sounds close

TUNING(FCGC)

Intro/Verse

F-----222---------------222---------------222------------5-5-5--|
C--333---555-333-----333---555-333-----333---555-333------------|
G---------------555---------------555---------------555---------|
C-------------------------------------------------------3-3-3---|

Chorus
F-----------3-----3--------------3-----3-------------3-----3---------------|
C-------------5-3---5-3------------5-3---5-3-----------5-3---5-3-----------|
G--------------------------------------------------------------------------|
C--000-0-00-------------333-3-33-------------000-0-00------------333-33/10-|


F-----------3-----3--------------3-----3-------------3-----3---------------|
C-------------5-3---5-3------------5-3---5-3-----------5-3---5-3-----------|
G--------------------------------------------------------------------------|
C--000-0-00-------------333-3-33-------------000-0-00------------333-33/10-|

F-----------|
C-----------|
G-----------|
C--3-0-0----|

2nd verse

In this verse he taps all the notes on the 17th fret which makes a sorta slapping sound

F-----222-----------------222-----------------222----------------5-5-5-|
C--333---333-555-333---333---333-555-333---333---333-555-333-----------|
G-------------------555-----------------555-----------------555--------|
C---------------------------------------------------------------3-3-3--|

F---5-5--------------|
C-------/12-12-12-17-|
G--------------------|
C--3-3---------------|

repeat chorus

Bridge

F----------------------2200----2200-|
C------5533----5533-----------------|
G-----------------------------------|
C--0000----0000----0000----0000-----|

Solo

F-----222---------------222---------------222------------5-5-5--|
C--333---555-333-----333---555-333-----333---555-333------------|
G---------------555---------------555---------------555---------|
C-------------------------------------------------------3-3-3---|

F---5-5--------------|
C-------/12-12-12-17-|
G--------------------|
C--3-3---------------|

Last chorus

F----------3-----3---------------------------------|
C------------5-3---5-3-----------------------------|
G--------------------------------------------------|
C--000-333-------------000-33333333/10101010101010-|

F-----------3-----3--------------3-----3-------------3-----3---------------|
C-------------5-3---5-3------------5-3---5-3-----------5-3---5-3-----------|
G--------------------------------------------------------------------------|
C--000-0-00-------------333-3-33-------------000-0-00------------333-33/10-|

Outro

F-----------------------------------------------------------------|
C-----------------------------------------------------------------|
G-----------------------------------------------------------------|
C--000-3-000-5-000-3-00-7-0-5-0-000-3-000-5-000-000-3-000-7-0-5-0-|

F--------|
C--------|
G--------|
C--3-0-0-|

            
            
Suggest correction
Creating personal tab
Creating personal tab
You can edit any tab online and save it as your Personal.

You can edit, replace or remove any tab part or add personal notes – all changes will be seen only by you.

Personal tabs can be accessed anytime from any device, even offline.
Learn more »
Give kudos to tab author, rate the tab!
1 2 3 4 5
comments
print report bad tab
1 comment total.
0 reply
MusicMan24 1,144 Apr 15, 2009 06:34 PM

In the video for this song, it looks like he uses a 6-string

guest
You may want to rate the tab now too:
select rating
Wanna post a correction for this tab? Suggest correction