Oops, an error
Loading. Please wait.

Do What You Do bass

version 2
version 2

Whole song

Interactive

6,564 views 1 this week
no commentswrite comment
1 2 3 4 5
x 4
add to favorites
×
Save as Personal and add changes to this tab that will be seen only by you. Learn more ›
×
You can save this tab as Personal to edit and correct it or add notes. All changes will be seen only by you. Learn more »
launch autoscroll
font size
0
reset
guitar tuner
edit
Autoscroll
slow
fast
+/-
esc
set tempo
stop
Author
"Do What You Do" - The New Game by Mudvayne
Tab by gtrzmbie

Tuning: Drop-C (C G C F)


Intro/Verse 1

F||-------5p2-2---------------------|-------5p2-2---------------------|
C||-5p3-3-------3p0-0-------------3-|-5p3-3-------3p0-0-0-----3-------|
G||-------------------3h5-5-3h5-5---|---------------------3-5---5-3-5-|
C||---------------------------------|---------------------------------|


F|-------5p2-2---------------------|---------------------------------||
C|-5p3-3-------3p0-0---------------|---------------------------------||(x2)
G|-------------------3h5-5-3-5-0---|-------3-----------3---------3/5-||
C|-------------------------------5-|-3-----------3-----------3-------||

                                                             |3|
F|-------5p2-2---------------------|-------5p2-2---------------------|
C|-5p3-3-------3p0-0-------------3-|-5p3-3------/5-----3-------------|
G|-------------------3h5-5-3h5-5---|-----------------------3-353-3-5-|
C|---------------------------------|---------------------------------|


F|-------5p2-2---------------------|---------------------------------|
C|-5p3-3-------3p0-0-0-----5-------|---------------------------------|
G|---------------------3-5---5-0---|-------3-----------3~~-------//--|
C|---------------------------------|-3-----------3-------------------|

Chorus

F||---------------------------------|---------------------------------|
C||---------------------------------|---------------------------------|
G||-----------------5-3-0---5-3-0---|-----------------3-5-3---3-2-----|
C||-0-0-0-----0---x-------0-------0-|-3-3-3-----3---x-------0-----5---|


F|---------------------------------|---------------------------------||
C|---------------------------------|---------------------------------||(x2)
G|-----------------5-3-0---5-3-0---|---------------------------------||
C|-0-0-0-----0---x-------0-------0-|-3-3-3-----3---x-3/8-8-8-8-7-7-7-||

               p
F|-------------2-------------------|
C|-------------0-------------------|
G|---------------------------------|
C|-3-----0-------------------------|


Verse 2
   t t t t t t t t t t t t t t t t   t t t t t t t t t t t   t   t
F|---------------------------------|---------------------------------|
C|-3-----------3-3-3-3-3-3-3-3-3-3-|-3-----------3-5-----------------|
G|---5-5-3-5-5---------------------|---5-5-3-5-5---------------------|
C|---------------------------------|-----------------5-0-0---5/7-0---|

   t t t t t t t t t   t t t t t t
F|---------------------------------|---------------------------------|
C|---------------------------------|-------------------------3-------|
G|-5-5-5-5-5-5-5-5-5---5-5-5-3-0---|-------3-----------3---------3---|
C|-0-0-0-0-0-0-0-0-0---0-0-0-----5-|-3-----------3-------------------|


F|-------5p2-2---------------------|-------5p2-2---------------------|
C|-5p3-3-------3-0---------3-------|-5p3-3-------3-0---------3-------|
G|-------------------3-5-5---5-3-5-|-------------------3-5-5---5-3-5-|
C|---------------------------------|---------------------------------|


F|-------5p2-2---------------------|---------------------------------|
C|-5p3-3-------3-0---------3-------|-------------------3/12--12--12--|
G|-------------------3-5-5---5-0---|-------3-------------------------|
C|-------------------------------5-|-3-----------3-------------------|


Bridge

F|---------------------------------|---------------------------------|
C|---------------------------------|---------------------------------|
G|---------8---------8-----8-------|---------------------------------|
C|-8-8-8-8---8-8-8-7---7-7---7-7-8-|-5-5-5-5-5-5-5-5-0-3-0-3-5-3-0-7-|

                                                     |3|     |3|
F|---------------------------------|---------------------------------|
C|---------------------------------|---------------------------------|
G|---------8---------8-----8-------|---------------------------------|
C|-8-8-8-8---8-8-8-7---7-7---7-7-8-|-5-5-5-5-5-5-5-5-350-0-0-350-0-7-|


F|---------------------------------|-------------------------------------|
C|---------------------------------|-------------------------------------|
G|---------8---------8-----8-------|-------------------------------------|
C|-8-8-8-8---8-8-8-7---7-7---7-7-8-|-5-5-5-5-3-5-5-5/10-10-10-10-9-9-9-9-|


F|---------------------------------|---------------------------------|
C|---------------------------------|---------------------------------|
G|---------8---------8-----8-------|---------------------------------|
C|-8-8-8-8---8-8-8-7---7-7---7-7-8-|-5-5-5-5-3-5-5-5-3-5-5-3-5-------|


Guitar Solo

F|-------5p2-2-------------5h7-7---|-------5p2-2---------------------|
C|-5p3-3-------3p0-0-------------7-|-5p3-3-------3p0-0-0-----3-------|
G|-------------------3h5-5---------|---------------------3-5---5-3-5-|
C|---------------------------------|---------------------------------|


F|-------5p2-2---------------------|---------------------------------|
C|-5p3-3-------3p0-0-0-----3-------|-------------------------3-------|
G|---------------------3-5---5-3-5-|-------3-----------3---------3---|
C|---------------------------------|-3-----------3-------------------|


F|-------5p2-2---------------------|-------5p2-2---------------------|
C|-5p3-3-------3p0-0-------3-------|-5p3-3------/5-----3-----3-------|
G|-------------------3h5-5---5-3-5-|-----------------------3---3-----|
C|---------------------------------|---------------------------------|


F|-------5p2-2---------------------|--------------------------12------|
C|-5p3-3-------3p0-0-0-----3-------|------------------/12--------12---|
G|---------------------3-5---5-3-5-|-------3--------------------------|
C|---------------------------------|-3-----------3--------------------|


Chorus (change)

F|---------------------------------|---------------------------------|
C|---------------------------------|---------------------------------|
G|---------------------------------|-----------------3-5-3---3-2-----|
C|-0-0-0---------------------------|-3-3-3-----------------------5---|


F|---------------------------------|---------------------------------|
C|---------------------------------|---------------------------------|
G|---------------------------------|---------------------------------|
C|-0-0-0---------------------------|-3-3-3-3-3-3-3/8---8-8-8-8-7-7-7\|


End

F||---------------------------------|---------------------------------|
C||---------------------------------|---------------------------------|
G||-------------------------1-0-----|-------------------------1-0-1-3-|
C||-0-0-0-0-5-3-0-3-5-3-0-3-----3-5-|-3-3-3-3-5-3-0-3-5-3-0-3---------|


F|---------------------------------|---------------------------------||
C|---------------------------------|---------------------------------||(x2)
G|-------------------------1-0-----|---------------------------------||
C|-0-0-0-0-5-3-0-3-5-3-0-3-----3-5-|-3-3-3-3-3-3-3-3/8-8-8-8-8-7-7-7-||

               p
F|-------------2-------------------|---------------------------------|
C|-------------0-------------------|---------------------------------|
G|---------------------------------|---------------------------------|
C|-3-----0-------------------------|---------------------------------|


The beginning of verse 2 is a best guess. I waffled between what is there and simply 
open Cs where I couldn't hear the notes clearly, but I left it like this because it's more 
this way.

As usual, feel free to make your own improvements or disparaging remarks regarding 
sections.

            
            
Suggest correction
Creating personal tab
Creating personal tab
You can edit any tab online and save it as your Personal.

You can edit, replace or remove any tab part or add personal notes – all changes will be seen only by you.

Personal tabs can be accessed anytime from any device, even offline.
Learn more »
comments
print report bad tab
guest
You may want to rate the tab now too:
select rating
Wanna post a correction for this tab? Suggest correction