Oops, an error
Loading. Please wait.

Dull Boy bass

version 1
version 1

Whole song

Interactive

14,489 views 3 this week
4 commentsread comments
1 2 3 4 5
x 6
add to favorites
×
Save as Personal and add changes to this tab that will be seen only by you. Learn more ›
×
You can save this tab as Personal to edit and correct it or add notes. All changes will be seen only by you. Learn more »
launch autoscroll
font size
0
reset
guitar tuner
edit
Autoscroll
slow
fast
+/-
esc
set tempo
stop
Author
Difficulty
P = Pop
S = Slap       
~ = Vibrato     
/ = Slide up
\ = Slide down
^ = Strum
-3- = triplet     
                  -Dull Boy by Mudvayne-
-Verse 1- (0:14) 
G|--------------------------------10-9----9-------------| 
D|-12-------------12-------------------12---12-10-12----|
A|------------------------------------------------------|
E|---10--10-10-10----10--10-10-10-----------------------|
B|------------------------------------------------------|
   P S   S  S  S  P  S   S  S  S

G|------------------------------------------------------|
D|-12-------------12--------------8-7----7--------------|
A|------------------------------------10---10-8-10------|
E|---10--10-10-10----10--10-10-10-----------------------|
B|------------------------------------------------------|
  P  S   S  S  S  P  S   S  S  S

G|--------------------------------10-9----9-------------|
D|-12-------------12-------------------12---12-10-12----|
A|------------------------------------------------------|
E|---10--10-10-10----10--10-10-10-----------------------|
B|------------------------------------------------------|
   P S   S  S  S  P  S   S  S  S

G|------------------------------------------------------|
D|-12-------------12------------------------------------|
A|---------------------------------1-0---0--------------|
E|---10--10-10-10----10--10-10-10------3---3-1-3--------|
B|------------------------------------------------------|
   P S   S  S  S  P  S   S  S  S

G|--------------------------------------|
D|------------------------3-2-0-2-0---0-|
A|-0----------0---------------------3---|
E|--------------------------------------|
B|---3--3-3-3---3--3-3-3----------------|
   P S  S S S P S  S S S
G|--------------------------------------|
D|--------------------------------------|
A|-0----------0-----------1-0---0-------|
E|----------------------------3---3-1-3-|
B|---3--3-3-3---3--3-3-3----------------|
   P S  S S S P S  S S S

G|---------------------------------------|
D|-----------------------2-0---0-2-3-2-0-|
A|-0----------0--------------3-----------|
E|---------------------------------------|
B|---3--3-3-3---3--3-3-3-----------------|

G|---------------------------------------|
D|---------------------3-2-0---0---------|
A|-0----------0--------------3---1-0---0-|
E|-----------------------------------3---|
B|---3--3-3-3---3--3-3-------------------|

-Pre Chorus- (0:41)
G|-------------------------------------------------------------||
D|-------------------------------------------------------------||
A|-1-0-------------1-0-------------3-0-------------111---000---|| X2
E|-----1-0-3-0-1-0-----1-0--0-1-2-----1-0-3-0-1-0----222---111-||
B|-------------------------4-----------------------------------||
                                                   -3--3--3--3-
-Chorus- (0:55)
G|------------------------------------------------------------||
D|------------------------------------------------------------||
A|---------------------------1-0-0-0-0-0-0-0-0-3-3-3-3-9-9-9~-|| X4
E|-----------------5-5-5-5/-----------------------------------||
B|-3-3-3-3-3-3-3-3--------------------------------------------||

-Verse 2 Intro- (1:21)                           
G|---------------------------------6-6-9-9-7-7-7---------------|
D|-12-------------12-----------------------0-0-0---------------|
A|-------------------------------------------------------------|
E|---10--10-10-10----10--10-10-10------------------------------|
B|-------------------------------------------------------------|
   P S   S  S  S  P  S   S  S  S           ^ ^ ^

G|------------------------------------------------------|
D|-12-------------12-----------------7-----6-----6------|
A|------------------------------------------------------|
E|---10--10-10-10----10--10-10-10--5---4-4---4-4---4-4--|
B|------------------------------------------------------|
  P  S   S  S  S  P  S   S  S  S   S P S S P S S P S S


-Verse 2- (1:28)

G|--------------------------------10-9----9-------------| 
D|-12-------------12-------------------12---12-10-12----|
A|------------------------------------------------------|
E|---10--10-10-10----10--10-10-10-----------------------|
B|------------------------------------------------------|
   P S   S  S  S  P  S   S  S  S

G|------------------------------------------------------|
D|-12-------------12--------------8-7----7--------------|
A|------------------------------------10---10-8-10------|
E|---10--10-10-10----10--10-10-10-----------------------|
B|------------------------------------------------------|
   P S   S  S  S  P  S   S  S  S

G|--------------------------------10-9----9-------------|
D|-12-------------12-------------------12---12-10-12----|
A|------------------------------------------------------|
E|---10--10-10-10----10--10-10-10-----------------------|
B|------------------------------------------------------|
   P S   S  S  S  P  S   S  S  S


G|------------------------------------------------------|
D|-12-------------12------------------------------------|
A|---------------------------------1-0---0-1-3-1--------|
E|---10--10-10-10----10--10-10-10------3----------------|
B|------------------------------------------------------|
   P S   S  S  S  P  S   S  S  S
G|---------------------------------------|
D|-----------------------2-0---0-2-3-2-0-|
A|-0----------0--------------3-----------|
E|---------------------------------------|
B|---3--3-3-3---3--3-3-3-----------------|
   P S  S S S P S  S S S

G|---------------------------------------|
D|---------------------------------------|
A|-0----------0----------1-0---0-1-3-1-0-|
E|---------------------------3-----------|
B|---3--3-3-3---3--3-3-3-----------------|
   P S  S S S P S  S S S

G|---------------------------------------|
D|-----------------------2-0---0-2-3-2-0-|
A|-0----------0--------------3-----------|
E|---------------------------------------|
B|---3--3-3-3---3--3-3-3-----------------|
   P S  S S S P S  S S S

G|---------------------------------------|
D|---------------------3-2-0---0---------|
A|-0----------0--------------3---1-0---0-|
E|-----------------------------------3---|
B|---3--3-3-3---3--3-3-------------------|
   P S  S S S P S  S S 

-Pre Chorus- (1:55)
G|-------------------------------------------------------------|
D|-------------------------------------------------------------|
A|-1-0-------------1-0-------------3-0-------------111---000---|
E|-----1-0-3-0-1-0-----1-0--0-1-2-----1-0-3-0-1-0----222---111-|
B|-------------------------4-----------------------------------|
                                                   -3--3--3--3-
-Chorus- (2:02)
G|------------------------------------------------------------||
D|------------------------------------------------------------||
A|---------------------------1-0-0-0-0-0-0-0-0-3-3-3-3-9-9-9~-|| X4
E|-----------------5-5-5-5/-----------------------------------||
B|-3-3-3-3-3-3-3-3--------------------------------------------||

-Soft Part- (2:30)
G|----|
D|----|
A|-5~-|
E|----|
B|----|

Begin playing with drums at (2:42)                
G|-----------------------------------------------||
D|-------12-10-12--------12-10-12-10-14-15-14-12-||
A|-----------------------------------------------||
E|-10-12-----------10-12-------------------------||
B|-----------------------------------------------||
                                                 || X2
G|-----------------------------------------------||
D|-------12-10-12~-------12-10-12----------------|| 
A|-----------------------------------------------|| 
E|-10-12-----------10-12------------12-10-12~----||
B|-----------------------------------------------||

G|--------------------------------|
D|--------------------------------|
A|-----5-3-5------5-3-5-3-7-8-7-5-|
E|--------------------------------| 
B|-3-5--------3-5-----------------|
                                      
G|--------------------------------|
D|--------------------------------|
A|-----5-3-5------5-3-5-----------|
E|--------------------------------|
B|-3-5--------3-5--------5-3-5~---|
                                 
G|--------------------------------|
D|--------------------------------|
A|-----5-3-5------5-3-5-3-7-8-7-5-|
E|--------------------------------| 
B|-3-5--------3-5-----------------|

G|--------------------------------|
D|--------------------------------|
A|-----5~-------------------------|
E|--------------------------------|
B|-3-5----------------------------|

-Chorus- (3:09)
G|------------------------------------------------------------||
D|------------------------------------------------------------||
A|---------------------------1-0-0-0-0-0-0-0-0-3-3-3-3-9-9-9~-|| X4
E|-----------------5-5-5-5/-----------------------------------||
B|-3-3-3-3-3-3-3-3--------------------------------------------||

-Outro- (3:36)
G|----------|
D|----------|
A|-----5~---| X4
E|----------|
B|-3-5------|

G|-----------|
D|-----------|
A|-----5-3-5-| X3
E|-----------|
B|-3-5-------|

G|----------|
D|----------|
A|-----3~---|
E|----------|
B|-3-5------|


If you have any problems with this tab, please contact me and I will help out in any way possible.
ENJOY!


            
            
Suggest correction
Creating personal tab
Creating personal tab
You can edit any tab online and save it as your Personal.

You can edit, replace or remove any tab part or add personal notes – all changes will be seen only by you.

Personal tabs can be accessed anytime from any device, even offline.
Learn more »
comments
print report bad tab
4 comments total. Showing first comments.
0 reply
Majigitajog 10 Jul 07, 2008 07:28 AM

Fantastic tab dude, good job. Screw tuning to Drop F#. Couldn't find this anywhere. "ALL WORK AND NO PLAY MAKES ME A DULL BOY!!!!" That's my jam, yo.

+1 reply
mudvayne2005 301 Jul 25, 2008 01:32 PM

tuning is GCGCF

0 reply
waynesworld1993 62 Aug 07, 2008 06:28 AM

Although not in the wright tuning it's an awesome tab i'm gonna give you four stars :)

guest
You may want to rate the tab now too:
select rating
Wanna post a correction for this tab? Suggest correction