Oops, an error
Loading. Please wait.

Dull Boy tab

version 2
version 2

Whole song

Interactive

1,401 views 3 this week
1 commentread comment
1 2 3 4 5
2 more votes to show rating
add to favorites
×
Save as Personal and add changes to this tab that will be seen only by you. Learn more ›
×
You can save this tab as Personal to edit and correct it or add notes. All changes will be seen only by you. Learn more »
launch autoscroll
font size
0
reset
how to read this tab
guitar tuner
edit
Autoscroll
slow
fast
+/-
esc
set tempo
stop
----------------------------------------------------------------------------
                             DULL BOY - Mudvayne
----------------------------------------------------------------------------
Tabber: schecterguy07
 Email: cj_brents@yahoo.com

Tuning: C G C F A D

----------------------------------------------------------------------------

Verse
D||----------------------------------------|
A||----------------------------------------|
F||----------------------------------------|
C||----------------------------------------|
G||--2-2-222--2-2-222--222-222--2-2-222----|
C||--2-2-222--2-2-222--222-222--2-2-222----|
   PM----------------------------------
                         


Verse(second part before the chorus)                    
D||--------------------------|--------------------------|
A||--------------------------|--------------------------|
F||--------------------------|--------------------------|
C||--------------------------|--------------------------|
G||--6--5--------------------|--6--5--------------------|
C||--------2--2--5--2--5--2--|--------2--2--5--2--5--2--|


Chorus                         
D||--------------------------------------------|
A||--------------------------------------------|
F||--------------------------------------------|
C||--22222222--55555555--44444444--77777777----|
G||--22222222--55555555--44444444--77777777----|
C||--22222222--55555555--44444444--77777777----|



Bridge(acoustic effect)             
D||-----------------|-----------------|
A||-----------------|-----------------|
F||-----------------|-----------------|
C||------------5----|------------5----|
G||-------2---------|-------2---------|
C||--2--------------|--2--------------|

D||-----------------|-----------------------------|
A||-----------------|-----------------------------|
F||-----------------|-----------------------------|
C||------------4----|------------4-----5-----2h4--|
G||-------2---------|-------2-------2-----2-------|
C||--2--------------|--2--------------------------|


the bridge is also played at the end with distortion
it goes more like this:
D||--------------|--------------|
A||--------------|--------------|
F||--------------|--------------|
C||---------5----|---------5----|
G||---------2----|---------2----|
C||--2-2---------|--2-2---------|
  PM----         PM----   
D||--------------|--------------------------|
A||--------------|--------------------------|
F||--------------|--------------------------|
C||---------4----|---------4-----5-----2h4--|
G||---------2----|---------2--2--2--2-------|
C||--2-2---------|--2-2---------------------|
  PM----         PM----        


            
            
Suggest correction
Creating personal tab
Creating personal tab
You can edit any tab online and save it as your Personal.

You can edit, replace or remove any tab part or add personal notes – all changes will be seen only by you.

Personal tabs can be accessed anytime from any device, even offline.
Learn more »
Give kudos to tab author, rate the tab!
1 2 3 4 5
comments
print report bad tab
1 comment total.
+1 reply
wtflolbbq 345 Jan 28, 2009 08:22 AM

chorus is horribly wrong sorry

guest
You may want to rate the tab now too:
select rating
Wanna post a correction for this tab? Suggest correction