Oops, an error
Loading. Please wait.

Fish Out Of Water bass

version 1
version 1

Whole song

Interactive

2,939 views 3 this week
2 commentsread comments
1 2 3 4 5
3 more votes to show rating
add to favorites
×
Save as Personal and add changes to this tab that will be seen only by you. Learn more ›
×
You can save this tab as Personal to edit and correct it or add notes. All changes will be seen only by you. Learn more »
launch autoscroll
font size
0
reset
guitar tuner
edit
Autoscroll
slow
fast
+/-
esc
set tempo
stop
Author
"Fish Out of Water" - The New Game by Mudvayne
Tab by gtrzmbie

Tuning: Drop-C (C G C F)

Intro part 1(Everything here is tapped) (x2)
   t  t    t t t t  t    t t t t  t  t t t  t    t t t t  t    t t t t  t  t  t
G|-14-14---------14-14---------14-14---------------------------------------------|
D|-12-12---0-0-0-12-12---0-0-0-12-12-0-0-12-12---0-0-0-12-12---0-0-0-14-15-14-12-|
A|---------------------------------------13-13---------13-13---------------------|
E|-------------------------------------------------------------------------------|

   t t t t t  t t    t t t t  t  t t t  t    t t t t  t    t t t  t  t  t  t
G|---------14---14---------14-14-------------------------------------------------|
D|-x-0-0-0-12-0-12---0-0-0-12-12-0-0-12-12---0-0-0-12-12---0-0-12-15-12-14-12----|
A|-----------------------------------13-13---------13-13-------------------------|
E|-------------------------------------------------------------------------------|

Intro part 2

G|-------------------------------------------------------------------------------|
D|-------------------------------------------------------------------------------|
A|-6-5-----5---6-5-----5-----------8-5-----5---6-5-----5---1---0-0---------------|
E|-----0-3---0-----0-3---0-3-5-0-0-----0-3---0-----0-3---0---3-------------------|


G|-------------------------------------------------------------------------------|
D|-------------------------------------------------------------------------------|
A|-6-5-----5---6-5-----5-----------8-5-----5---6-5-----5-------------------------|
E|-----0-3---0-----0-3---0-3-5-0-0-----0-3---0-----0-3---0-2-3-2-1---------------|


Verse

G|-------------------------------------------------------------------------------|
D|-------------------------------------------------------------------------------|
A|-6-5---------6-5---------5-5---------------------------------------------------|
E|-------0-0-0-------0-0-0-----7-7-8-8---0-0-0-8-8---0-0-0-8-8-7-7---------------|


G|-------------------------------------------------------------------------------|
D|-------------------------3-5---------------------------------------------------|
A|-6-5---------6-5-------------0-------------------------------------------------|
E|-------0-0-0-------0-0-0---------8-8---0-0-0-8-8---0-0-0-2-3-2-0---------------|


G|-------------------------------------------------------------------------------|
D|-------------------------------------------------------------------------------|
A|-6-5---------6-5---------5-5-------------------------------8-------------------|
E|-------0-0-0-------0-0-0-----7-7-8-8---0-0-0-8-8---0-0-0-8---7-7---------------|


G|-------------------------------------------------------------------------------|
D|-------------------------3-5---------------------------------------------------|
A|-6-5---------6-5-------------0-------------------------------------------------|
E|-------0-0-0-------0-0-0---------8-8---0-0-0-8-8---0-0-0-2-3-2-0---------------|


Chorus (x2)
   t t t   tt  t t t   t t t     t t t t t   tt  t t t   t t t     t t
G|-------------------------------------------------------------------------------|
D|-------------------------------------------------------------------------------|
A|-3-5---------3-5-----3-5-5s6s5-3-5-3-5---------3-5-----3-5-5s6s5-3-5-----------|
E|-----0---x0/4----0---------------------0---x0/4----0---------------------------|


G|-------------------------------------------------------------------------------|
D|-------------------------------------------------------------------------------|
A|-12-12-12-------12-12-12-------12---12---11-11-11-------10-10-10---------------|
E|----------0-0-0----------0-0-0----0----0----------0-0-0----------0-0-0-13-0-13-|


Bridge

G|-----------3-----------3---------------2---------------------------------------|
D|------3---------3--------3--------3------------3h5-----------------------------|
A|-5-------------------5-----5-3-------------1h3-----3h5-5-5---------------------|
E|-------------------------------------------------------------------------------|


G|-----------3-----------3---------------3------------3--------------------------|
D|------1---------1--------1--------5---------5---------5------------------------|
A|-3-------------------3-----3/6-------6------------6-----6----------------------|
E|-------------------------------------------------------------------------------|


G|-----------3-----------3---------------2---------------------------------------|
D|------3---------3--------3--------3------------3h5-----------------------------|
A|-5-------------------5-----5-3-------------1h3-----3h5-5-5---------------------|
E|-------------------------------------------------------------------------------|


Bridge (2)

G|-------------------------------------------------------------------------------|
D|-------------------------------------------------------------------------------|
A|-3-3-3-3-3-3-3-3-----------------6-6-6-6-6-6-6-6-------------------------------|
E|-------------------------------------------------------------------------------|


G|-------------------------------------------------------------------------------|
D|-0-0-0-0-0-0-0-0---------------------------------------------------------------|
A|-----------------1-1-1-1-1-1-1-1-----------------------------------------------|
E|---------------------------------3-3-3-3-3-3-3-3-3-3-3-3-3-3-3-3---------------|


G|-------------------------------------------------------------------------------|
D|-------------------------------------------------------------------------------|
A|-3-3-3-3-3-3-3-3-----------------6-6-6-6-6-6-6-6-------------------------------|
E|-----------------8-7-0-5-7-5-5-3-----------------8-7-0-5-7-5-5-3---------------|


G|-------------------------------------------------------------------------------|
D|-0-0-0-0-0-0-0-0---------------------------------------------------------------|
A|-----------------1-1-1-1-1-1-1-1-----------------------------------------------|
E|---------------------------------3-3-3-3-3-3-3-3-0-3-3-3-0-3-3-3---------------|


Ending

G|-------------------------------------------------------------------------------|
D|-------------------------------------------------------------------------------|
A|-3h5---------3h5---------------------------------------------------------------|
E|-----0-----------0-------------------------------------------------------------|

Ryan's stuff can be hard to hear, so some of this is best guess. However, I think this 
about right. Let me know what you think, and if anyone feels they can improve on this, 
go ahead and do so.

Obviously, things here are not completely in order.

            
            
Suggest correction
Creating personal tab
Creating personal tab
You can edit any tab online and save it as your Personal.

You can edit, replace or remove any tab part or add personal notes – all changes will be seen only by you.

Personal tabs can be accessed anytime from any device, even offline.
Learn more »
Give kudos to tab author, rate the tab!
1 2 3 4 5
comments
print report bad tab
2 comments total.
0 reply
metalabyss1 10 Dec 03, 2009 04:45 PM

He plays drop c; or with 5 strings, its gcgcf. It might be a good tab, but it isn't how Ryan plays it.

0 reply
SOAD-4-LYFE 200 Jan 05, 2010 05:29 PM

good tab.

guest
You may want to rate the tab now too:
select rating
Wanna post a correction for this tab? Suggest correction