Oops, an error
Loading. Please wait.

Ld 50 album bass

4,898 views 12 this week
6 commentsread comments
1 2 3 4 5
x 5
add to favorites
×
Save as Personal and add changes to this tab that will be seen only by you. Learn more ›
×
You can save this tab as Personal to edit and correct it or add notes. All changes will be seen only by you. Learn more »
launch autoscroll
font size
0
reset
guitar tuner
edit
Autoscroll
slow
fast
+/-
esc
set tempo
stop
Author
-----------------------------------------------------------------------------------------------
  Artist - MuDvAyNe
  Album  - L.D.50 (2000)
  Tabbed - Jakob Jugovic
  Mail   - jakobjugovic@gmail.com
  Year   - 2009
-----------------------------------------------------------------------------------------------
*** PLEASE RATE THIS TAB, I SPENT A YEAR OF LISTENING AND TESTING :P, thanks ***
-----------------------------------------------------------------------------------------------

  1  -  Monolith
  2  -  Dig
  3  -  Internal Primates Forever
  4  -  -1
  5  -  Death Blooms
  6  -  Golden Ratio
  7  -  Cradle
  8  -  Nothing to Gein
  9  -  Mutatis Mutandis
  10 -  Everything and Nothing
  11 -  Severed
  12 -  Recombinant Resurgence
  13 -  Prod
  14 -  Pharmaecopia
  15 -  Under my Skin
  16 -  (K)now F(orever)
  17 -  Lethal Dosage 


-----------------------------------------------------------------------------------------------


  TUNING:

  G
  D
  A
  E
  B

  p - pull
  h - hammer on
  / - slide upwards
  \ - slide downwards
  x - ghost note
  X - left hand ghost note
  S - slapping 
  F - 'fingerslapping'
  T - tapping - {#} base-note
  P - popping
  ~ - vibrato
  o - 1/4 (timescale)




-----------------------------------------------------------------------------------------------

  1    M o n o l i t h

-----------------------------------------------------------------------------------------------



  apparently no bass line




-----------------------------------------------------------------------------------------------

  D i g

-----------------------------------------------------------------------------------------------



  INTRO:

    o . . . o . . . o . . . o . . . o . . . o . . . o . . . o . . . 
G |---------6---------------6---------------6---------------6------|
D |---------5---------------5---------------5---------------5------|
A |----------------------------------------------------------------|  x2
E |----------------------------------------------------------------|
B |-0---x-----------0---x-----------0---x-----------0---x----------|
    S   S   P       S   S   P       S   S   P       S   S   P


    o . . . o . . . o . . . o . . . o . . . o . . . o . . . o . . . 
G |----------------------------------------------------------------|
D |---------5/--------------11\-------------5/--------------11\----|
A |---------4/--------------10\-------------4/--------------10\----|  x2
E |----------------------------------------------------------------|
B |-0---x-----------0---x-----------0---x-----------0---x----------|
    S   S           S   S           S   S           S   S


  CHORUS:

    o . . . o . . . o . . . o . . . o . . . o . . . o . . . o . . .     _
G |-----------------------------------------------------------------|    |
D |-----------------------------------------------------------------|    |
A |-----------------------------------------------------------------|    |
E |-----------------------------------------------------------------|    |
B |-2-3-2-----------0---2---3-3-2-0-2-3-2-----------0---2---3-3-2-0-|    |
    F F F           F   F   F F F F F F F           F   F   F F F F      |
                                                                         |  x3
                                                                         |
    o . . . o . . . o . . . o . . . o . . . o . . . o . . . o . . .      |
G |---------------------------------------------------------6\------|    |
D |---------------------------------------------------------5\------|    |
A |-----------------------------------------------------------------|    |
E |-----------------------------------------------------------------|    |
B |-2-3-2-----------0---2---3-3-2-0-2-3-2///////////0---x-----------|   _|
    F F F           F   F   F F F F F F F            S   S   P


  VERSE:

    o . . . o . . . o . . . o . . .
G |---------6---------0---x-------x-|
D |---------------------------------|
A |-2h4-x-------x---x---x---2h4-x---|  x3
E |---------------------------------|
B |---------------------------------|
    S   S   P   S   S P S P S   S P


    o . . . o . . . o . . . o . . .
G |-------------------x-------6\----|
D |---------3\2---------------------|
A |-------------2---x---2---x-------|
E |-0---x-x-------------------------|
B |---------------------------------|
    S   S S P   S   S P S   S P


    o . . . o . . . o . . . o . . .
G |---------6---------0---x-------x-|
D |---------------------------------|
A |-2h4-x-------x---x---x---2h4-x---|  x3
E |---------------------------------|
B |---------------------------------|
    S   S   P   S   S P S P S   S P


    o . . . o . . . o . . . o . . .
G |---------6---------0-----------x-|
D |-------------------------4-------|
A |-2h4-x-------x---x---x-x-----x---|
E |---------------------------------|
B |---------------------------------|
    S   S   P   S   S P S S P   S P


  CHORUS:

    o . . . o . . . o . . . o . . . o . . . o . . . o . . . o . . .     _
G |-----------------------------------------------------------------|    |
D |-----------------------------------------------------------------|    |
A |-----------------------------------------------------------------|    |
E |-----------------------------------------------------------------|    |
B |-2-3-2-----------0---2---3-3-2-0-2-3-2-----------0---2---3-3-2-0-|    |
    F F F           F   F   F F F F F F F           F   F   F F F F      |
                                                                         |  x2
                                                                         |
    o . . . o . . . o . . . o . . . o . . . o . . . o . . . o . . .      |
G |---------------------------------------------------------6\------|    |
D |---------------------------------------------------------5\------|    |
A |-----------------------------------------------------------------|    |
E |-----------------------------------------------------------------|    |
B |-2-3-2-----------0---2---3-3-2-0-2-3-2///////////0---x-----------|   _|
    F F F           F   F   F F F F F F F            S   S   P


  VERSE:

    o . . . o . . . o . . . o . . .
G |---------6---------0---x-------x-|
D |---------------------------------|
A |-2h4-x-------x---x---x---2h4-x---|  x3
E |---------------------------------|
B |---------------------------------|
    S   S   P   S   S P S P S   S P


    o . . . o . . . o . . . o . . .
G |-----------------//9~~~~~9\\\\\\-|
D |---------3\2---------------------|
A |-------------2-------------------|
E |-0---x-x-------------------------|
B |---------------------------------|
    S   S S P   S


    o . . . o . . . o . . . o . . .
G |---------6---------0---x-------x-|
D |---------------------------------|
A |-2h4-x-------x---x---x---2h4-x---|  x2
E |---------------------------------|
B |---------------------------------|
    S   S   P   S   S P S P S   S P


    o . . . o . . . o . . . o . . . o . . . o . . . o . . . o . . . 
G |---------6---------0---x-----9/11------------------0-----------x-|
D |-----------------------------9/11------------------------4-------|
A |-2h4-x-------x---x---x---2-/---------0h4-----2h4-x---x-x-----x---|
E |-----------------------------------------------------------------|
B |-----------------------------------------------------------------|
    S   S   P   S   S P S P S           S       S   S P S S P   S P


  CHORUS:

    o . . . o . . . o . . . o . . . o . . . o . . . o . . . o . . .
G |-----------------------------------------------------------------|
D |-----------------------------------------------------------------|
A |-----------------------------------------------------------------|
E |-----------------------------------------------------------------|
B |-2-3-2-----------0---2---3-3-2-0-2-3-2-----------0---2---3-3-2-0-|

    F F F           F   F   F F F F F F F           F   F   F F F F


    o . . . o . . . o . . . o . . . o . . . o . . . o . . . o . . . 
G |---------------------------------------------------------6\------|
D |---------------------------------------------------------5\------|
A |-----------------------------------------------------------------|
E |-----------------------------------------------------------------|
B |-2-3-2-----------0---2---3-3-2-0-2-3-2///////////0---x-----------|
    F F F           F   F   F F F F F F F           S   S   P


    o . . . o . . . o . . . o . . . o . . . o . . . o . . . o . . .
G |-----------------------------------------------------------------|
D |-----------------------------------------------------------------|
A |-----------------------------------------------------------------|
E |-----------------------------------------------------------------|
B |-2-3-2-----------0---2---3-3-2-0-2-3-2-----------0---2---3-3-2-0-|
    F F F           F   F   F F F F F F F           F   F   F F F F



    o . . . o . . . o . . . o . . . o . . . o . . . 
G |-------------------------------------------------|
D |-------------------------------------------------|
A |-------------------------------------------------|
E |-------------------------------------------------|
B |-2-3-2-----------0---2---3-3-2-0-2-3-2-----------|
    F F F           F   F   F F F F F F F


  RIFF 1:

    o . . o . . o . . o . . o . . o . .
G |-4-----5-----6-----9-----8-----7----|  >
D |-4-----5-----6-----9-----8-----7----|  > strum
A |-2-----3-----4-----7-----6-----5----|  >
E |------------------------------------|
B |------------------------------------|


  BRIDGE:

    o . . . o . . . o . . . o . . .
G |---------------------------------|
D |---------------------------------|
A |---------------------------------|  x4
E |---------------------------------|
B |-2-3-2---------------------------|
    F F F

    o . . . o . . . o . . . o . . .
G |---------------------------x---x-|
D |---------------------------------|
A |---------------------------------|  x4
E |---------------------------------|
B |-2-3-2-------x-------x---x---x---|
                S       S   S P S P


    o . . . o . . . o . . . o . . . o . . . o . . . o . . . o . . . 
G |-----------------------------------------------------------------|
D |-----------------------------------------------------------------|
A |-----------------------------------------------------------------|
E |-----------------------------------------------------------------|
B |-2-3-2-----------2-3-2-----------2-3-2-----------2-3-2-----------|
    F F F           F F F           F F F           F F F

    o . . . o . . . o . . . o . . . o . . . o . . . o . . . o . . . 
G |---------6---------------6---------------6---------------6-------|
D |---------5---------------5---------------5---------------5-------|
A |-----------------------------------------------------------------|
E |-----------------------------------------------------------------|
B |-0---x-----------0---x-----------0---x-----------0---x-----------|
    S   S   P       S   S   P       S   S   P       S   S   P


    o . . . o . . . o . . . o . . . o . . . o . . . o . . . o . . . 
G |---------------------------------------------------------6\------|
D |---------5/--------------5/--------------5/--------------5\------|
A |---------4/--------------4/--------------4/----------------------|
E |-----------------------------------------------------------------|
B |-0---x-----------0---x-----------0---x-----------0---x-----------|
    S   S           S   S           S   S           S   S   P


    o . . . o . . . o . . . o . . . o . . . o . . . o . . . o . . . 
G |-----------------------------------------------------------------|
D |-----------------------------------------------------------------|
A |-----------------------------------------------------------------|
E |---------0h1-0-------0h1-0-------0h1-0-------0h1-0-------0h1-0---|
B |-2---2-----------------------------------------------------------|
    S   S   S   S       S   S       S   S       S   S       S   S


    o . . . o . . . o . . . o . . . o . . . o . . . o . . . o . . . 
G |-----------------------------------------------------------------|
D |-----------------------------------------------------------------|
A |-----------------------------------------------------------------|
E |---------0h1-0-------0h1-0-------0h1-0-------0h1-0/------12\-----|
B |-2---2-----------------------------------------------------------|
    S   S   S   S       S   S       S   S       S   S


    o . . . o . . . o . . . o . . . o . . . o . . . o . . . o . . . 
G |-----------------------------------------------------------------|
D |-----------------------------------------------------------------|
A |-----------------------------------------------------------------|  x2
E |---------0h1-0-------0h1-0-------0h1-0-------0h1-0-------0h1-0---|
B |-2---2-----------------------------------------------------------|
    S   S   S   S       S   S       S   S       S   S       S   S


  RIFF 1:

    o . . o . . o . . o . . o . . o . .
G |-4-----5-----6-----9-----8-----7----|  >
D |-4-----5-----6-----9-----8-----7----|  > strum
A |-2-----3-----4-----7-----6-----5----|  >
E |------------------------------------|
B |------------------------------------|


  CHORUS:

    o . . . o . . . o . . . o . . . o . . . o . . . o . . . o . . .     _
G |-----------------------------------------------------------------|    |
D |-----------------------------------------------------------------|    |
A |-----------------------------------------------------------------|    |
E |-----------------------------------------------------------------|    |
B |-2-3-2-----------0---2---3-3-2-0-2-3-2-----------0---2---3-3-2-0-|    |
    F F F           F   F   F F F F F F F           F   F   F F F F      |
                                                                         |  x2
                                                                         |
    o . . . o . . . o . . . o . . . o . . . o . . . o . . . o . . .      |
G |---------------------------------------------------------6\------|    |
D |---------------------------------------------------------5\------|    |
A |-----------------------------------------------------------------|    |
E |-----------------------------------------------------------------|    |
B |-2-3-2-----------0---2---3-3-2-0-2-3-2///////////0---x-----------|   _|
    F F F           F   F   F F F F F F F            S   S   P


    o . . . o . . . o . . . o . . . o . . . o . . .
G |-------------------------------------------------|
D |-------------------------------------------------|
A |-------------------------------------------------|
E |-------------------------------------------------|
B |-2-3-2-----------0---2---3-3-2-0-2-3-2-----------|
    F F F           F   F   F F F F F F F


    o . . . o . . . o . . . o . . . o . . . o . . . o . . . o . . .
G |-----------------------------------------------------------------|
D |-----------------------------------------------------------------|
A |-----------------------------------------------------------------|
E |-----------------------------------------------------------------|
B |-2-3-2-----------0---2---3-3-2-0-2-3-2-----------0---2---3-3-2-0-|
    F F F           F   F   F F F F F F F           F   F   F F F F


    o . . . o . . . o . . . o . . . o . . . o . . . o . . . o . . .
G |---------------------------------------------------------6\------|
D |---------------------------------------------------------5\------|
A |-----------------------------------------------------------------|
E |-----------------------------------------------------------------|
B |-2-3-2-----------0---2---3-3-2-0-2-3-2///////////0---x-----------|
    F F F           F   F   F F F F F F F           S   S   P




-----------------------------------------------------------------------------------------------

  I n t e r n a l    P r i m a t e s    F o r e v e r

-----------------------------------------------------------------------------------------------



  INTRO:

    .   o . . . o . . . o . . . o . . .
G |---|---------------------------------|
D |---|---------------------------------|
A |---|---------------------------------|
E |---|---------------------------------|
B |-1/|12-0-0-----0-0-----0-0-------0---|
    S     S S     S S     S S       S


  CHORUS:

    o . . . o . . . o . . . o . . . 
G |---------------------------------|
D |---------------------------------|
A |---------------------------------|  x7
E |---------------------------------|
B |-4-0-1---1-0-1-----0---0-3-2-3---|
    F F F   F F F     F   F F F F


    o . . . o . . . o . . . o . . .
G |---------------------------------|
D |---------------------------------|
A |---------------------------------|
E |---------------------------------|
B |-0-0-0-----0-0-----0-0-------0---|
    S S S     S S     S S       S


  VERSE:

    o . . . o . . . o . . . o . . . 
G |---------------------------------|
D |---------------------------------|
A |-----------2---2-----------------|  x8
E |---------------------------4-----|
B |-0-0-2-3-0---0---0-0-3-2-0---3-2-|
    F F F F F F F F F F F F F F F F


  CHORUS:

    o . . . o . . . o . . . o . . . 
G |---------------------------------|
D |---------------------------------|
A |---------------------------------|  x2
E |---------------------------------|
B |-4-0-1---1-0-1-----0---0-3-2-3---|
    F F F   F F F     F   F F F F


    o . . . o . . . o . . . o . . . 
G |---------------------------------|
D |---------------------------------|
A |---------------------------------|  x2
E |---------------------------------|
B |-4-0-1-0-1-0-1-----0---0-3-2-3---|
    F F F F F F F     F   F F F F


  VERSE:

    o . . . o . . . o . . . o . . . 
G |---------------------------------|
D |---------------------------------|
A |-----------2---2-----------------|  x8
E |---------------------------4-----|
B |-0-0-2-3-0---0---0-0-3-2-0---3-2-|
    F F F F F F F F F F F F F F F F


  CHORUS:

    o . . . o . . . o . . . o . . . 
G |---------------------------------|
D |---------------------------------|
A |---------------------------------|  x4
E |---------------------------------|
B |-4-0-1---1-0-1-----0---0-3-2-3---|
    F F F   F F F     F   F F F F


  [guitar "solo"]


    o . . . o . . . o . . . o . . . 
G |---------------------------------|
D |---------------------------------|
A |---------------------------------|  x2
E |---------------------------------|
B |-4-0-1---1-0-1-----0---0-3-2-3---|
    F F F   F F F     F   F F F F


    o . . . o . . . o . . . o . . . 
G |---------------------------------|
D |---------------------------------|
A |---------------------------------|  x2
E |---------------------------------|
B |-4-0-1---1-0-1-----0---0-3-2-3-/-|
    F F F   F F F     F   F F F F

    o . . . o . . . o . . . o . . .
G |---------------------------------|
D |---------------------------------|
A |---------------------------------|
E |---------------------------------|
B |/12-0-0-----0-0-----0-0------0---|
       S S     S S     S S      S


  BRIDGE 1:

    o . . . o . . . o . . . o . . . 
G |---------------------------------|
D |---------------------------------|
A |-2-2-2-------------------0-0-1-1-|  x2
E |-------------0-0-0-1-1-1---------|
B |-------3-3-3---------------------|
    F F F F F F F F F F F F F F F F


G |-----|
D |-----|
A |-2//-|
E |-----|
B |-----|


  BRIDGE 2:

    o . . . o . . . o . . . o . . . 
G |-4-----------------------2---3---|
D |-4-----------------------2---3---|
A |---------------------------------|  x3
E |-------------0-0-0-1-1-1---------|
B |-------3-3-3---------------------|
          F F F F F F F F F


  AFTER BRIDGE FUNKY:

    o . . . o . . . o . . . o . . . o . . . o . . . o . . . o . . . 
G |(4)------4-------x-------4---------------4---------7-----9\------|
D |(4)--------------------------------------------------------------|
A |-2---x-x-----2-2-----2-----------2---2-2-----0h2-x---x-----------|
E |-----------------------------------------------------------------|
B |-----------------------------------------------------------------|
    S   S S P   S S P   S   P       S   S S P   S   S P S   P


    o . . . o . . . o . . . o . . . o . . . o . . . o . . . o . . . 
G |---------4---------x-----4---------------4-----------------------|
D |-------------------------------------------------(3)-(3)-(3)-----|
A |-2---2-2-----2-2-----x-----------2---x-x-----2-2--0-x-0-x-0-x----|
E |-----------------------------------------------------------------|
B |-------------------------------------------------x-x-x-x-x-x-----|
    S   S S P   S S   P S   P       S   S S P   S S SPSPSPSPSPSP


    o . . . o . . . o . . . o . . . 
G |---------------------------------|
D |---------------------------------|
A |-2-2-2-------------------0-0-1-1-|  x4
E |-------------0-0-0-1-1-1---------|
B |-------3-3-3---------------------|
    F F F F F F F F F F F F F F F F


    o . . . o . . . o . . . o . . . 
G |---------------------------------|
D |-9-9-9-7-7-7-6-6-6-5-5-5-4-4-4-2-|
A |---------------------------------|
E |-7-7-7-5-5-5-4-4-4-3-3-3-2-2-2-0-|
B |---------------------------------|
    F F F F F F F F F F F F F F F F


    o . . . o . . . o . . . o . . . 
G |---------------------------------|
D |---------------------------------|
A |---------------------------------|  x4
E |---------------------------------|
B |-5-3-0-3-5-0-5-----6-3-0-3-5-----|
    F F F F F F F     F F F F F


    o . . . o . . . o . . . o . . . 
G |-4-----------------------1-------|
D |---2p0-----7-8-----2-2-----2-----|
A |-------2/7-----------------------|
E |---------------------------------|
B |---------------------------------|


    o . . . o . . . o . . . o . . . 
G |---------------------------------|
D |---------------------------------|
A |---------------------------------|  x2
E |---------------------------------|
B |-5-3-0-3-5-0-5-----6-3-0-3-5-----|
    F F F F F F F     F F F F F


    o . . . o . . . o . . . o . . . 
G |-4-----------------------1-------|
D |---2p0-----7-8-----2-2-----------|
A |-------2/7-----------------------|
E |---------------------------------|
B |---------------------------------|


    o . . . o . . . o . . . o . . . 
G |---------------------------------|
D |---------------------------------|
A |---------------------------------|  x2
E |---------------------------------|
B |-5-3-0-3-5-0-5-----6-3-0-3-5-----|
    F F F F F F F     F F F F F


    o . . . o . . . o . . . o . . . 
G |-------------------------2-------|
D |---------------------------2-----|
A |---------------------------------|
E |---------------------------------|
B |-5-3-0-3-5-0-5-----0-0-----------|
    F F F F F F F     F F


    o . . . o . . . o . . . o . . . 
G |---------------------------------|
D |---------------------------------|
A |---------------------------------|  x2
E |---------------------------------|
B |-5-3-0-3-5-0-5-----6-3-0-3-5-----|
    F F F F F F F     F F F F F


    o . . . o . . . o . . . o . . . 
G |-4-----------------------1-------|
D |---2p0-----7-8-----2-2-----2-----|
A |-------2/7-----------------------|
E |---------------------------------|
B |---------------------------------|


    o . . . o . . . o . . . o . . . 
G |---------------------------------|
D |---------------------------------|
A |---------------------------------|  x2
E |---------------------------------|
B |-5-3-0-3-5-0-5-----6-3-0-3-5-----|
    F F F F F F F     F F F F F


    o . . . o . . . [  6  ]  [ 3 ]
G |-4----------------x-x-x----------|
D |---2p0-----7-8-----------/D-D-D--|
A |-------2/7-------x-x-x-----------|  D=10
E |-------------------------/8-8-8--|
B |---------------------------------|
                    SPSPSP   F F F


    o . . . o . . . o . . . o . . . 
G |---------------------------------|
D |---------------------------------|
A |---------------------------------|  x3
E |---------------------------------|
B |-5-3-0-3-5-0-5-----6-3-0-3-5-----|
    F F F F F F F     F F F F F


    o . . . o . . . o . 
G |---------------------|
D |---------------------|
A |---------------------|
E |---------------------|
B |-5-3-0-3-5-0-5-----6-|
    F F F F F F F     F


    o . . . .  
G |-----------|
D |-----------|
A |-----------|  x7
E |-----------|
B |-3-0-3-5^6-|
    F F F F


    o . . o . . .
G |--------------|
D |--------------|
A |--------------|
E |--------------|
B |-3-0-3-0------|
    F F F F


    o . . . o . . .  
G |-----------------|
D |-----------------|
A |-----------------|
E |-----------------|
B |-0-3-0-3-6-0-3---|
    F F F F F F F


  CHORUS:

    o . . . o . . . o . . . o . . . 
G |---------------------------------|
D |---------------------------------|
A |---------------------------------|  x4
E |---------------------------------|
B |-4-0-1---1-0-1-----0---0-3-2-3---|
    F F F   F F F     F   F F F F


    o . . . o . . . o . . . o . . . 
G |---------------------------------|
D |---------------------------------|
A |---------------------------------|  x4
E |---------------------------------|
B |-4-0-1-0-1-0-1-----0---0-3-2-3---|
    F F F F F F F     F   F F F F


  OUTRO 1:

    o . . . o . . . o . . . o . . . o . . .
G |-------------x---------------------------|
D |--------------x--------------------------|
A |---------------x-------------------------|  x4
E |----------------x------------------------|
B |-4-3-0-7-6-------x---4-3-0-7-6-0-3-------|
    F F F F F           F F F F F F F


    o . . . o . . . o . . . o . . . o . . .
G |-----------------------------------------|
D |-----------------------------------------|
A |-----------------------------------------|  x6
E |-----------------------------------------|
B |-4-3-0-7-6-0-3-----4-3-0-6-0-0-0/12~~~\--|
    F F F F F F F     F F F F F F


    o . . . o . . . o . . . o . . . o . . .
G |-----------------------------------------|
D |-B-B---B-B---B-B---B-B---B-B---B-B-C-C\--|  A=10
A |-A-A---A-A---A-A---A-A---A-A---A-A-B-B\--|  B=11 
E |-----------------------------------------|  C=12
B |-----------------------------------------|


    o . . . o . . . o . . . o . . . o . . .
G |-----------------------------------------|
D |-----------------------------------------|
A |-----------------------------------------|
E |-----------------------------------------|
B |-4-3-0-7-6-0-3-----4-3-0-6-0-0-0/12~~~\--|
    F F F F F F F     F F F F F F

    o . . . o . .
G |---------------|
D |---------------|
A |---------------|
E |---------------|
B |-4-0-1---1-0-1-|
    F F F   F F F




-----------------------------------------------------------------------------------------------

  - 1

-----------------------------------------------------------------------------------------------



  VERSE:

    o . . . o . . . o . . . o . . . 
G |---------------------------------|
D |---------------------------------|
A |---------------------------------|  x3
E |-----2/6-------------------------|
B |-3p0-----3p0-----3p0-0-0---0-----|


    o . . . o . . . o . . . o . . . 
G |---------------------------------|
D |---------------------------------|
A |---------------------------------|
E |-----2/6-------------------------|
B |-3p0-----3p0-----3p0-0-0---0---x-|


    o . . . o . . . o . . . o . . . 
G |---------------------------------|
D |---------------------------------|
A |-------1-------------------------|  x4
E |-----2---------------------------|
B |-3p0-----3p0---x-3p0-0-0---0---x-|


    o . . . o . . . o . . . o . . . 
G |---------------------------------|
D |---------------------------------|
A |---------------------------------|  x3
E |-----2/6-------------------------|
B |-3p0-----3p0---x-3p0-0-0---0---x-|


    o . . . o . . . o . . . o . . . 
G |---------------------------------|
D |---------------------------------|
A |-----------------------------2---|
E |-----2/6-------------------------|
B |-3p0-----3p0-----3p0-x-0---x-----|


    o . . . o . . . o . . . o . . . 
G |---------------------------------|
D |---------------------------------|
A |-------1-------------------------|  x3
E |-----2---------------------------|
B |-3p0-----3p0---x-3p0-0-0---0---x-|


    o . . . o . . . o . . . o . . . 
G |---------------------------------|
D |---------------------------------|
A |-------1-----------------x---2---|
E |-----2---------------------------|
B |-3p0-----3p0---x-3p0-0-0---0-----|


  CHORUS:

    o . . . o . . . o . . . o . . . 
G |---------------------------------|
D |---------------------------------|
A |-------1-------------------------|  x4
E |-----2---------------------------|
B |-3p0-----3p0-----3p0-x-0---0-----|
    S   S S S       S   S S   S


    o . . . o . . . o . . . o . . . 
G |-------3-------------------------|
D |---------------------------------|
A |---------------------------------|  x4
E |-----2---------------------------|
B |-3p0-----3p0-----3p0-x-0---0---0-|
    S   S P S       S   S S   S   S




  VERSE:

    o . . . o . . . o . . . o . . . 
G |---------------------------------|
D |---------------------------------|
A |---------------------------------|  x4
E |-----2/6-------------------------|
B |-3p0-----3p0-----3p0-0-0---0-----|


    o . . . o . . . o . . . o . . . 
G |---------------------------------|
D |---------------------------------|
A |-------1-------------------------|  x4
E |-----2---------------------------|
B |-3p0-----3p0---x-3p0-0-0---0---x-|


    o . . . o . . . o . . . o . . . 
G |---------------------------------|
D |---------------------------------|
A |---------------------------------|  x4
E |-----2/6-------------------------|
B |-3p0-----3p0-----3p0-0-0---0-----|


    o . . . o . . . o . . . o . . . 
G |---------------------------------|
D |---------------------------------|
A |-------1-------------------------|  x4
E |-----2---------------------------|
B |-3p0-----3p0---x-3p0-0-0---0---x-|


  CHORUS:

    o . . . o . . . o . . . o . . . 
G |---------------------------------|
D |---------------------------------|
A |-------1-------------------------|  x4
E |-----2---------------------------|
B |-3p0-----3p0-----3p0-x-0---0-----|
    S   S S S       S   S S   S


    o . . . o . . . o . . . o . . . 
G |-------3-------------------------|
D |---------------------------------|
A |---------------------------------|  x8
E |-----2---------------------------|
B |-3p0-----3p0-----3p0-x-0---0---0-|
    S   S P S       S   S S   S   S


  BRIDGE:

    o . . . o . . . o . . . o . . . 
G |---------------------------------|
D |---------------------------------|
A |---------------------------------|
E |---------------------------------|
B |---------5-3-5-3-2-3-2-3-5-3-5-6-|
            F F F F F F F F F F F F


    o . . . o . . . o . . . o . . . 
G |---------------------------------|
D |---------------------------------|
A |---------------------------------|  x6
E |---------------------------------|
B |-2-3-2-3-5-3-5-3-2-3-2-3-5-3-5-6-|
    F F F F F F F F F F F F F F F F


    o . . . o . . . o . . . o . . . 
G |---------------------------------|
D |---------------------------------|
A |---------------------------------|  x3
E |---------------------------------|
B |-2-3-2-3-5-3-5-3-2-3-2-3-x-x---x-|
    F F F F F F F F F F F F S S   S


    o . . . o . . . o . . . o . . . 
G |---------------------------------|
D |---------------------------------|
A |---------------------------------|
E |---------------------------------|
B |-2-3-2-3-5-3-5-3-2-3-2-3---------|
    F F F F F F F F F F F F


  MID PART:

    o . . . o . . . o . . . o . . . 
G |---------------------------------|
D |---------------------------------|
A |-------x-------------------------|
E |---------------------------------|
B |-3p2-x---3p2-----3p2-x-2---2-----|
    S   S P S       S   S S   S

    o . . . o . . . o . . . o . . . 
G |---------------------------------|
D |---------------------------------|
A |-------x-------------------------|
E |---------------------------------|
B |-3p2-x---3p2-----3p2-x-2---------|
    S   S P S       S   S S

    o . . . o . . . o . . . o . . . 
G |---------------------------------|
D |---------------------------------|
A |-------x-------------------------|
E |---------------------------------|
B |-3p2-x---3p2-----3p2-x-2---2---x-|
    S   S P S       S   S S   S   S

    o . . . o . . . o . . . o . . . 
G |---------------------------------|
D |---------------------------------|
A |-------x-------------------------|
E |---------------------------------|
B |-3p2-x---3p2-----3p2-x-2---------|
    S   S P S       S   S S


    o . . . o . . . o . . . o . . . 
G |---------------------------------|
D |---------------------------------|
A |-------4-------------------------|
E |-----4---------------------------|
B |-3p2-----3p2---x-3p2-x-2---2---x-|


    o . . . o . . . o . . . o . . . 
G |---------------------------------|
D |---------------------------------|
A |-------4/5-----------------------|
E |-----4---------------------------|
B |---2-------3-----3p2-x-2---2---x-|


    o . . . o . . . o . . . o . . . 
G |---------------------------------|
D |---------------------------------|
A |-------4-------------------------|
E |-----4---------------------------|
B |-3p2-----3p2---x-3p2-x-2---2---x-|


    o . . . o . . . o . . . o . . . 
G |---------------------------------|
D |---------------------------------|
A |-------4-------------------------|
E |-----4---------------------------|
B |-3p2-----3p2---x-3p2-x-x-x-x-2---|


    o . . . o . . . o . . . o . . . 
G |---------------------------------|
D |---------------------------------|
A |-------4-------------------------|
E |-----4---------------------------|
B |-3p2-----3p2-----3p2-x-2---2-----|


    o . . . o . . . o . . . o . . . 
G |---------------------------------|
D |---------------------------------|
A |-------4-------------------------|
E |-----4------------------/7\\-----|
B |-3p2-----3p2-----3p2-x-x---------|


    o . . . o . . . o . . . o . . . 
G |---------------------------------|
D |---------------------------------|
A |-------4/5-----------------------|
E |---------------------------------|
B |---2/3-----3-----3p2-x-2---2/3---|


    o . . . o . . . o . . . o . . . 
G |---------------------------------|
D |---------------------------------|
A |-------4-------------------------|
E |-----4---------------------------|
B |-3p2-----3p2-----3p2-x-2---------|


  CHORUS:

    o . . . o . . . o . . . o . . . 
G |-------3-------------------------|
D |---------------------------------|
A |-------1-------------------------|  x3
E |-----2---------------------------|
B |-3p0-----3p0-----3p0-0-0---0-----|
    S   S P S       S   S S   S


    o . . . o . . . o . . . o . . . 
G |-------3-------------------------|
D |---------------------------------|
A |-------1-------------------------|
E |-----2---------------------------|
B |-3p0-----3p0-----3p0-0-0////\\\\-|
    S   S P S       S   S S   


    o . . . o . . . o . . . o . . . 
G |-------3-------------------------|
D |---------------------------------|
A |-------1-------------------------|  x4
E |-----2---------------------------|
B |-3p0-----3p0-----3p0-0-0---0-----|
    S   S P S       S   S S   S


    o . . . o . . . o . . . o . . . 
G |-------3-------------------------|
D |---------------------------------|
A |-------1-------------------------|
E |-----2---------------------------|
B |-3p0-----3p0-----3p0-0-0-x-x---x-|
    S   S P S       S   S S S S   S


    o . . . o . . . o . . . o . . . 
G |-------3-------------------------|
D |---------------------------------|
A |-------1-------------------------|
E |-----2---------------------------|
B |-3p0-----3p0-----3p0-0-0-x-x-x-x-|
    S   S P S       S   S S S S S S


    o . . . o . . . o . . . o . . . 
G |-------3-------------------------|
D |---------------------------------|
A |-------1-------------------------|
E |-----2---------------------------|
B |-3p0-----3p0-----3p0-0-0-x-x---x-|
    S   S P S       S   S S S S   S


    o . . . o . . . o . . . o . . . 
G |-------3-------------------------|
D |---------------------------------|
A |-------1-------------------------|
E |-----2---------------------------|
B |-3p0-----3p0-----3p0-0-0-x-x---x-|
    S   S P S       S   S S S S   S


    o . . . o . . . o . . . o . . . 
G |-------3-------------------------|
D |---------------------------------|
A |-------1-------------------------|
E |-----2---------------------------|
B |-3p0-----3p0---------------------|
    S   S P S




-----------------------------------------------------------------------------------------------

  D e a t h    B l o o m s

-----------------------------------------------------------------------------------------------



  INTRO:

    o . . . o . . . o . . . o . . .
G |-----------------9-----9-----9\--|       > !note!
D |-------------------9-----9-------|       > do harmonic slap tapping
A |---------------------9-----9-----|  x4   > on 21 fret on every string
E |---------------------------------|
B |-3-2-2-3-2-2-2-0-----------------|
    F F F F F F F S T T T T T T T


  PRE CHORUS:

    o . . . o . . . o . . . o . . .
G |---------------------------------|
D |---------------------------------|
A |---------------------------------|
E |---------------------------------|
B |-0-7-8-0-7-8-0-7-8-0-5-0-3-5-2-0-|
    F F F F F F F F F F F F F F F F


  PRE:

    o . . . o . . .
G |-----------------|
D |-----------------|
A |-----------------|
E |-----------------|
B |-3\2-0-3/5-0-2/3-|
    s   s s   s s


  VERSE:

    o . . . o . . . o . . . o . . . o . . . o . . . o . . . o . . .
G |-----------------------------------------------------------------|
D |-----------------------------------------------------------------|
A |-----------------------------------------------------------------|  x2
E |-----------------------------------------------------------------|
B |-------------3-2-3-2-0-2-3-2-0-2---------------2-3-2-0-2-3-2-0-2-|
                F F F F F F F F F F               F F F F F F F F F

  PRE:

    o . . . o . . .
G |-----------------|
D |-----------------|
A |-----------------|
E |-----------------|
B |-3\2-0-3/5-0-2/3-|
    S   S S   S S


  HEAVY RIFF:

    o . . . o . . . o . . . o . . .
G |---------------------------------|
D |---------------------------------|
A |---------------------------------|  x4
E |---------------------------------|
B |-3-2-2-3-2-2-3-2-2-3-2-2-3-2-0-2-|
    F F F F F F F F F F F F F F F F


  PRE:

    o . . . o . . .
G |-----------------|
D |-----------------|
A |-----------------|
E |-----------------|
B |-3\2-0-3/5-0-2/3-|
    S   S S   S S

  VERSE:

    o . . . o . . . o . . . o . . . o . . . o . . . o . . . o . . .
G |-----------------------------------------------------------------|
D |-----------------------------------------------------------------|
A |-----------------------------------------------------------------|  x2
E |-----------------------------------------------------------------|
B |-------------3-2-3-2-0-2-3-2-0-2---------------2-3-2-0-2-3-2-0-2-|
                F F F F F F F F F F               F F F F F F F F F


  PRE:

    o . . . o . . .
G |-----------------|
D |-----------------|
A |-----------------|
E |-----------------|
B |-3\2-0-3/5-0-2/3-|
    S   S S   S S


  HEAVY RIFF:

    o . . . o . . . o . . . o . . .
G |---------------------------------|
D |---------------------------------|
A |---------------------------------|  x4
E |---------------------------------|
B |-3-2-2-3-2-2-3-2-2-3-2-2-3-2-0-2-|
    F F F F F F F F F F F F F F F F


  CHORUS:

    o . . . o . . . o . . . o . . .
G |---------------------------------|
D |---------------------------------|
A |---------------------------------|
E |---------------------------------|
B |-0-7-8-0-7-8-0-7-8-0-5-0-3-5-2-0-|
    F F F F F F F F F F F F F F F F


    o . . . o . . . o . . . o . o . . . o . . . o . . . o . . .
G |-----4-----4-----2-----2-------------------------------------|
D |---4---4-------2---2-------5---------------------------------|
A |-2-------2---0-------0---------------------------------------|
E |-------------------------3-----------------------------------|
B |-----------------------------0-7-8-0-7-8-0-7-8-0-5-0-3-5-2-0-|
                            F F F F F F F F F F F F F F F F F F


    o . . . o . . . o . . . o . . . o . . . o . . . o . . . o . . .
G |-----4-----4-----6-----6-----7-----------------------------------|
D |---4---4-------6---6-------7-------------------------------------|
A |-2-------2---4-------4---5---------------------------------------|
E |-----------------------------------------------------------------|
B |---------------------------------0-7-8-0-7-8-0-7-8-0-5-0-3-5-2-0-|
                                    F F F F F F F F F F F F F F F F


    o . . . o . . . o . . . o . o . . . o . . . o . . . o . . .
G |-----4-----4-----2-----2-------------------------------------|
D |---4---4-------2---2-------5---------------------------------|
A |-2-------2---0-------0---------------------------------------|
E |-------------------------3-----------------------------------|
B |-----------------------------0-7-8-0-7-8-0-7-8-0-5-0-3-5-2-0-|
                            F F F F F F F F F F F F F F F F F F


    o . . . o . . . o . . . o . . . o . . .
G |-----4-----4-----6-----6-----7-----------|
D |---4---4-------6---6-------7-------------|
A |-2-------2---4-------4---5---------------|
E |-----------------------------------------|
B |---------------------------------0-------|
                                    S

  BRIDGE:

    o . . . o . . . o . . . o . . .
G |-------0---x-------0---x-4---4/--|
D |-------------------------4---4/--|
A |-0h2-x---x---0h2-x---x-----------|  x6
E |---------------------------------|
B |---------------------------------|
    S   S P S P S   S P S P F   F


    o . . . o . . . o . . . o . . . o . . . o . . . o . . .
G |------------------------------------------/7---7---7\----|
D |------------------------------------------/7---7---7\----|
A |---------------------------------------------------------|  x4
E |---------------------------------------------------------|
B |-3---2-0-2-0-2-3-----2-0-2-0-3---2-0-3-0-0-------------0-|
    F   F F F F F F     F F F F F   F F F F S             S


    o . . . o . . . o . . . o . . . 
G |-------0---x-------0---x-4---4---|
D |-------------------------4---4---|
A |-0h2-x---x---0h2-x---x-----------|  x3
E |---------------------------------|
B |---------------------------------|
    S   S P S P S   S P S P F   F


    o . . . o . . . o . . . o . . .
G |-------------------------4---4---|
D |-------------------------4---4---|
A |---------------------------------|  x3
E |---------------------------------|
B |-3p0-0-3p0-0-3p0-0-3p0-0---------|
    S   S S   S S   S S   S P   P


    o . . . o . . . o . . . o . . . o . . . o . . . o . . . o . . .  
G |-4-----2----------------------------------------------------------|
D |-------------6>>>>>>>>>>>>>>>-------------------------------------|
A |-2-----0----------------------------------------------------------|
E |-------------4>>>>>>>>>>>>>>>-------------------------------------|
B |---------------------------------3p0-0-3p0-0-3p0-0-0--------------|
    P     P     P                   S   S S   S S   S S


    o . . . o . . . o . . . o . . . o . . . o . . . o . . . o . . .    
G |-4-----2/9--------------------------------------------------------|
D |-------------6>>>>>>>>>>>>>>>-------------------------------------|
A |-2-----0----------------------------------------------------------|
E |-------------4>>>>>>>>>>>>>>>-------------------------------------|
B |---------------------------------3p0-0-3p0-0-3p0-0-0--------------|
    P     P     P                   S   S S   S S   S S


    o . . . o . . . o . . . o . . . o . . . o . . . o . . . o . . .   
G |-4-----2----------------------------------------------------------|
D |-------------6>>>>>>>>>>>>>>>-------------------------------------|
A |-2-----0----------------------------------------------------------|
E |-------------4>>>>>>>>>>>>>>>-------------------------------------|
B |---------------------------------3p0-0-3p0-0-3p0-0-0--------------|
    P     P     P                   S   S S   S S   S S


    o . . . o . . . o . . . o . . . o . . . o . . . o . . . o . . .  
G |-4-----6-----9>>>>>>>>>>>>>>>-------------------------------------|
D |-4-----7-----9>>>>>>>>>>>>>>>-------------------------------------|
A |-------7-----7>>>>>>>>>>>>>>>-------------------------------------|
E |------------------------------------------------------------------|
B |---------------------------------3p0-0-3p0-0-3p0-0-0--------------|
    P     P     P                   S   S S   S S   S S


    o . . . o . . . o . . . o . . .
G |---------------------------------|
D |---------------------------------|
A |---------------------------------|  x4
E |---------------------------------|
B |-3p0-0-3p0-0-3p0-0-0-------------|
    S   S S   S S   S S


    o . . . o . . . o . . . o . . .
G |-----------------------------2---|
D |---------------------------------|
A |---------------------------------|  x8
E |---------------------------------|
B |-3p0-0-3p0-0-3p0-0-0-----0-x-----|
    S   S S   S S   S S     S S P


    o . . . o . . . o . . . o . . .
G |-----------------------------7---|
D |---------------------------------|
A |---------------------------------|
E |---------------------------------|
B |-3p0-0-3p0-0-3p0-0-0-----0-x-----|
    S   S S   S S   S S     S S P


    o . . . o . . . o . . . o . . .
G |-----------------------------9---|
D |---------------------------------|
A |---------------------------------|
E |---------------------------------|
B |-3p0-0-3p0-0-3p0-0-0-----0-x-----|
    S   S S   S S   S S     S S P


    o . . . o . . . o . . . o . . . 
G |-----------------------------11--|
D |---------------------------------|      
A |---------------------------------|
E |---------------------------------|
B |-3p0-0-3p0-0-3p0-0-0-----0-x-----|
    S   S S   S S   S S     S S P


    o . . . o . . . o . . . o . . . 
G |---------------------------------|
D |---------------------------------|
A |---------------------------------|
E |---------------------------------|
B |-3p0-0-3p0-0-3p0-0>>>>>>>>>>>>>>-|
    S   S S   S S   S


  HEAVY RIFF:

    o . . . o . . . o . . . o . . .
G |---------------------------------|
D |---------------------------------|
A |---------------------------------|  x8
E |---------------------------------|
B |-3-2-2-3-2-2-3-2-2-3-2-2-3-2-0-2-|
    F F F F F F F F F F F F F F F F


  CHORUS:

    o . . . o . . . o . . . o . . .
G |---------------------------------|
D |---------------------------------|
A |---------------------------------|
E |---------------------------------|
B |-0-7-8-0-7-8-0-7-8-0-5-0-3-5-2-0-|


    o . . . o . . . o . . . o . o . . . o . . . o . . . o . . .
G |-----4-----4-----2-----2-------------------------------------|
D |---4---4-------2---2-------5---------------------------------|
A |-2-------2---0-------0---------------------------------------|
E |-------------------------3-----------------------------------|
B |-----------------------------0-7-8-0-7-8-0-7-8-0-5-0-3-5-2-0-|
                            F F F F F F F F F F F F F F F F F F


    o . . . o . . . o . . . o . . . o . . . o . . . o . . . o . . .
G |-----4-----4-----6-----6-----7-----------------------------------|
D |---4---4-------6---6-------7-------------------------------------|
A |-2-------2---4-------4---5---------------------------------------|
E |-----------------------------------------------------------------|
B |---------------------------------0-7-8-0-7-8-0-7-8-0-5-0-3-5-2-0-|
                                    F F F F F F F F F F F F F F F F


    o . . . o . . . o . . . o . o . . . o . . . o . . . o . . .
G |-----4-----4-----2-----2-------------------------------------|
D |---4---4-------2---2-------5---------------------------------|
A |-2-------2---0-------0---------------------------------------|
E |-------------------------3-----------------------------------|
B |-----------------------------0-7-8-0-7-8-0-7-8-0-5-0-3-5-2-0-|
                            F F F F F F F F F F F F F F F F F F


    o . . . o . . . o . . . o . . . o . . . o . . . o . . . o . . .
G |-----4-----4-----6-----6-----7-----------------------------------|
D |---4---4-------6---6-------7-------------------------------------|
A |-2-------2---4-------4---5---------------------------------------|
E |-----------------------------------------------------------------|
B |---------------------------------0-7-8-0-7-8-0-7-8-0-5-0-3-5-2-0-|
                                    F F F F F F F F F F F F F F F F


    o . . . o . . . o . . . o . o . . . o . . . o . . . o . . .
G |-----4-----4-----2-----2-------------------------------------|
D |---4---4-------2---2-------5---------------------------------|
A |-2-------2---0-------0---------------------------------------|
E |-------------------------3-----------------------------------|
B |-----------------------------0-7-8-0-7-8-0-7-8-0-5-0-3-5-2-0-|
                            F F F F F F F F F F F F F F F F F F


    o . . . o . . . o . . . o . . . o . . . o . . . o . . . o . . .
G |-----4-----4-----6-----6-----7-----------------------------------|
D |---4---4-------6---6-------7-------------------------------------|
A |-2-------2---4-------4---5---------------------------------------|
E |-----------------------------------------------------------------|
B |---------------------------------0-7-8-0-7-8-0-7-8-0-5-0-3-5-2-0-|
                                    F F F F F F F F F F F F F F F F


    o . . . o . . . o . . . o . o . . . o . . . o . . . o . . .
G |-----4-----4-----2-----2-------------------------------------|
D |---4---4-------2---2-------5---------------------------------|
A |-2-------2---0-------0---------------------------------------|
E |-------------------------3-----------------------------------|
B |-----------------------------0-7-8-0-7-8-0-7-8-0-5-0-3-5-2-0-|
                            F F F F F F F F F F F F F F F F F F


    o . . . o . . . o . . . o . . . o . . . o . . .
G |-----4-----4-----6-----6-----7-------------------|
D |---4---4-------6---6-------7---------------------|
A |-2-------2---4-------4---5-----------------------|
E |-------------------------------------------------|
B |---------------------------------3\2-0-3/5-0-2/3-|
                                    S   S S   S S

  OUTRO:

    o . . . o . . . o . . . o . . . o . . . o . . . o . . . o . . .
G |---------------------------------------------2-----------------|
D |---------------------------------------------------------------|
A |---------------------------------------------------------------|
E |---------------------------------------------------------------|
B |-0-0---0-----0-----0-----0---3\2-0-----0---x-----3\2-0-3-5p0-0-|
    S S   S     S     S     S   S   S     S   S P   S   S S S   S


    o . . . o . . . o . . . o . . . o . . . o . . . o . . .
G |-------------------------------------2-------------------|
D |---------------------------------------------------------|
A |---------------------------------------------------------|
E |---------------------------------------------------------|
B |-0-----0-----0---3\2-3/5-0-0---0---x-----3\2-0-3/5-0-2/3-|
    S     S     S   S   S   S S   S   S P   S   S S S   S 


    o . . . o . . . o . . . o . . . o . . . o . . . o . . . o . . .
G |---------------------------------------------2-----------------|
D |---------------------------------------------------------------|
A |---------------------------------------------------------------|
E |---------------------------------------------------------------|
B |-0-0---0-----0-----0-----0---3\2-0-----0---x-----3p2-0-3-5p0-0-|
    S S   S     S     S     S   S   S     S   S P   S   S S S   S


    o . . . o . . . o . . . o . . . o . . . 
G |-------------------------------------14--|-14-----|
D |-----------------------------------------|---13---|
A |-------------------------------------14--|-----12-|
E |-----------------------------------------|--------|
B |-0-----0-----0---3\2-3/5-0-0---0---x-----|--------|
    S     S     S   S   S   S S   S   S P




-----------------------------------------------------------------------------------------------

  G o l d e n    R a t i o

-----------------------------------------------------------------------------------------------



  apparently no bass line




-----------------------------------------------------------------------------------------------

  C r a d l e

-----------------------------------------------------------------------------------------------



  CHORUS:

    o . . . o . . . o . . . o . . .     
G |-----------------------------4---|
D |---------------------------------|
A |-----------------------------2---|  x4
E |---------------------------------|
B |-1-0-0-1-0-0-0---x-1-0-0-1-x-----|
    F F F F F F F   F F F F F S P


  INTRO:

    o . . . o . . . o . . . o . . .     
G |-x-------------------------------|
D |-x-------------------------------|
A |-x-------------------------------|
E |-x-------------------------------|
B |-x-------------------------------|
    S


    o . . . o . . . o . . . o . . .      
G |-x-----x-------------------------|
D |-x-----x-------------------------|
A |-x-----x-------------------------|
E |-x-----x-------------------------|
B |-x-----x-------------------------|
    S     S


    o . . . o . . . o . . . o . . .     
G |-x-----x-----x-------------------|
D |-x-----x-----x-------------------|
A |-x-----x-----x-------------------|
E |-x-----x-----x-------------------|
B |-x-----x-----x-------------------|
    S     S     S


    o . . . o . . . o . . . o . . .      
G |-x-----x-----x-----x-------------|
D |-x-----x-----x-----x-------------|
A |-x-----x-----x-----x-------------|
E |-x-----x-----x-----x-------------|
B |-x-----x-----x-----x-------------|
    S     S     S     S


  CHORUS:

    o . . . o . . . o . . . o . . .     
G |-----------------------------4---|
D |---------------------------------|
A |-----------------------------2---|  x4
E |---------------------------------|
B |-1-0-0-1-0-0-0---x-1-0-0-1-x-----|
    F F F F F F F   F F F F F S P


  VERSE:

    o . . . o . . . o . . . o . . . o . . . o . . . o . . . o . . . 
G |-------------------------------------------------------------5\--|
D |-----------------------------------------------------------------|
A |-------------------------------------------------------------3\--|
E |-----------------------------------------------------------------|
B |-010---010---0101010---010---0101010---010---0101010---/60-x-----|
    ShS   ShS   ShShShS   ShS   ShShShS   ShS   ShShShS   S S S P


    o . . . o . . . o . . . o . . . o . . . o . . . o . . . o . . . 
G |-----------------------------------------------------------------|
D |-----------------------------------------------------------------|
A |-----------------------------------------------------------------|
E |-----------------------------------------------------------------|
B |-010---010---0101010---010---0101010---010---0101010---010---010-|
    ShS   ShS   ShShShS   ShS   ShShShS   ShS   ShShShS   ShS   ShS



    o . . . o . . . o . . . o . . . o . . . o . . . o . . . o . . .     _
G |-----------------------------------------------------------------|    |
D |-------------------7/9---9/10\-------------x-----7/9-----9/10----|    |
A |-----------------------------------------------------------------|    |
E |-------------------5/7---7/8\--------------------5/7-----7/8-----|    |
B |-4\3-0-3p0-0-2h3-x-----x---------4\3-0h3-x---x-x-----x-x-x-x-x-x-|    |
    S   S S   S S   S P   S P       S   S   S P S S P   S P S P S P      |
                                                                         |  x2
                                                                         |
    o . . . o . . . o . . . o . . . o . . . o . . . o . . . o . . .      |
G |-----------------------------------------------------------------|    |
D |-------------------7/9---9/10\-------------x-----7/9-------------|    |
A |-----------------------------------------------------------------|    |
E |-------------------5/7---7/8\--------------------5/7-------------|    |
B |-4\3-0-3p0-0-2h3-x-----x---------4\3-0h3-x---x-x-----x-x-x-x-x-x-|   _| 
    S   S S   S S   S P   S P       S   S   S P S S P   S P S P S P


    o . . . o . . . o . . . o . . . o . . . o . . . o . . . o . . . 
G |-------------------------------------------------------------5\--|
D |-----------------------------------------------------------------|
A |-------------------------------------------------------------3\--|
E |-----------------------------------------------------------------|
B |-010---010---0101010---010---0101010---010---0101010---/60-x-----|
    ShS   ShS   ShShShS   ShS   ShShShS   ShS   ShShShS   S S S P


    o . . . o . . . o . . . o . . . o . . . o . . . o . . . o . . . 
G |-----------------------------------------------------------------|
D |----------------------------------------------------0--0----0--0-|
A |-----------------------------------------------------------------|
E |-----------------------------------------------------------------|
B |-010---010---0101010---010---0101010---010---01010Xx-Xx-X0Xx-Xx-X|
    ShS   ShS   ShShShS   ShS   ShShShS   ShS   ShShS SP SP S SP SP


    o . . . o . . . o . . . o . . . o . . . o . . . o . . . o . . . 
G |-----------------------------------------------------------------|
D |-----------------------------------------------------------------|
A |-----------------------------------------------------------------|
E |-----------------------------------------------------------------|
B |-010---010---0101010---010---0101010---010---0101010---010---010-|
    ShS   ShS   ShShShS   ShS   ShShShS   ShS   ShShShS   ShS   ShS


    o . . . o . . . o . . . o . . . 
G |---------------------------------|
D |---------------------------------|
A |---------------------------------|
E |---------------------------------|
B |-----------------1////////////6--|


    o . . . o . . . o . . . o . . . 
G |---------------------------------|
D |---------------------------------|
A |-------------2-----3-----3\2-----|  x7
E |---------------------------------|
B |-0-1h2-0-3h4---4\3---4\3-----3/4-|
    S S   S S   S S   S S   S   S


    o . . . o . . . o . . . o . . .     
G |---------------------------------|
D |---------------------------------|
A |-------------2-------------------|  x8
E |---------------------------------|
B |-0-1-2-0-3-4---4-3-5-4-3-6-5-4~--|
    F F F F F F F F F F F F F F F


    o . . . o . . . o . . . o . . .     
G |---------------------------------|
D |---------------------------------|
A |---------------------------------|  x3
E |---------------------------------|
B |-0-----3-----5-----0---0-5^6-0---|
    F     F     F     F   F F   F


    o . . . o . . . o . . . o . . .      
G |---------------------------------|
D |-------------------------x-------|
A |---------------------------------|
E |---------------------------------|
B |-0-----3-----5---x-x--------x----|
    F     F     F   S S     P  S


  OTHER PART:

    o . . . o . . . o . . . o . . .
G |-4-----2-----1-------------------|
D |-4-----2-----1-------------------|
A |-2-----0-------------------------|
E |---------------------------------|
B |-------------------0---0-5^6-0---|
                      F   F F   F


    o . . . o . . . o . . . o . . .
G |-4-----7-----9-------------------|
D |-4-----7-----9-------------------|
A |-2-----5-----7-------------------|
E |---------------------------------|
B |-------------------0---0-5^6-0---|
                      F   F F   F


    o . . . o . . . o . . . o . . .
G |-4-----2-----1-------------------|
D |-4-----2-----1-------------------|
A |-2-----0-------------------------|
E |---------------------------------|
B |-------------------0---0-5^6-0---|
                      F   F F   F


    o . . . o . . . o . . . o . . .
G |-4-----7-----9-------------------|
D |-4-----7-----9-----------x-------|
A |-2-----5-----7-------------------|
E |---------------------------------|
B |-----------------x-x-------x-----|
                    S S     P S


    o . . . o . . . o . . . o . . .
G |-4-----2-----1-------------------|
D |-4-----2-----1-------------------|
A |-2-----0-------------------------|
E |---------------------------------|
B |-------------------0---0-5^6-0---|
                      F   F F   F


    o . . . o . . . o . . . o . . .
G |-4-----7-----9-------------------|
D |-4-----7-----9-------------------|
A |-2-----5-----7-------------------|
E |---------------------------------|
B |-----------------x--x--x-x--x--x-|
                    S  S  S S  S  S


    o . . . o . . . o . . . o . . .
G |-4-----2-----1-------------------|
D |-4-----2-----1-------------------|
A |-2-----0-------------------------|
E |---------------------------------|
B |-------------------0---0-5^6-0---|
                      F   F F   F


    o . . . o . . . o . . . o . . .
G |-4-----7-----9-------------------|
D |-4-----7-----9-------------------|
A |-2-----5-----7-------------------|
E |---------------------------------|
B |-----------------0-0-----0-------|
                    S S     S


  BRIDGE:

    o . . . o . . . o . . . o . . .    
G |---------------------------------|
D |-------2p1-----------------------|
A |-3p2-------2h3p2-2---------------|
E |---------------------------------|
B |-----x-------------x-x-0---0---0-|
    S   S S   S     S S S S   S   S


    o . . . o . . . o . . . o . . .    
G |---------------------------------|
D |-------2p1-----------------------|
A |-3p2-------2h3~~~2---------------|
E |---------------------------------|
B |-----x---------------x-x-x---0-xx|
    S   S S   S         S S S S P


    o . . . o . . . o . . . o . . .    
G |---------------------------------|
D |-------2p1-----------------------|
A |-3p2-------2h3p2-2---------------|
E |---------------------------------|
B |-----x-------------x-x-0---0---x-|
    S   S S   S     S S S S   S   S


    o . . . o . . . o . . . o . . .    
G |---------------------------------|
D |-------2p1-----------------------|
A |-3p2-------2h3~~~2---------------|
E |---------------------------------|
B |-----x---------------x-x-x-x-x---|
    S   S S   S         S S S S S


    o . . . o . . . o . . . o . . .    
G |---------------------------------|
D |-------2p1-----------------------|
A |-3p2-------2h3p2-2---------------|
E |---------------------------------|
B |-----x---------------x-0---0---x-|

    o . . . o . . . o . . . o . . .    
G |-----------------------------4---|
D |-------2p1-----------------------|
A |-3p2-------2h3~~~2-------------2-|
E |---------------------------------|
B |-----x---------------x-x-x-------|

    o . . . o . . . o . . . o . . .    
G |---------------------------------|
D |-------2p1-----------------------|
A |-3p2-------2h3p2-2---------------|
E |---------------------------------|
B |-----x---------------x-0---0---x-|

    o . . . o . . . o . . . o . . .    
G |---------------------------------|
D |-------2p1-----------------------|
A |-3p2-------2h3~~~~~~~~~~~~-------|
E |---------------------------------|
B |-----x---------------------------|


  END:

    o . . . o . . . o . . . o . . .     
G |---------------------------------|
D |---------------------------------|
A |---------------------------------|
E |---------------------------------|
B |-5-4-3-0-4-3-0-0-5-4-3-0-4-3-0-0-|
    F F F F F F F F F F F F F F F F


    o . . . o . . . o . . . o . . . 
G |---------------------------------|
D |---------------------------------|
A |---------------------------------|
E |---------------------------------|
B |-010---010-----010---------------|
    ShS   ShS     ShS




-----------------------------------------------------------------------------------------------

  N o t h i n g    T o    G e i n

-----------------------------------------------------------------------------------------------



  INTRO:

    o . . . o . . . o . . . o . . . o . . . o . . . o . . . o . . .
G |-----------------------------------------------------------------|
D |-----------------------------------------------------------------|
A |-----------------------------------------------------------------|
E |-----------------------------------------------------------------|
B |-3-0-0-2-0-0-2-3-6-6-6-6-6-6-6-6-3-3-3-3-3-3-5-3-2-2-2-2-2-2-2-0-|

  or only

    o . . . o . . . o . . . o . . . o . . . o . . . o . . . o . . .
G |-----------------------------------------------------------------|
D |-----------------------------------------------------------------|
A |-----------------------------------------------------------------|
E |-----------------------------------------------------------------|
B |-0---------------6---------------3---------------2---------------|

  then

    o . . . o . . . o . . . o . . . o . . . o . . . o . . . o . . .
G |-----------------------9---------------9-------------------------|
D |---------------9-7---------7-------------------------------------|
A |-----------7/9-------------------10--------10----9-----10--------|
E |-----------------------------------------------------------9-9\--|
B |-0---------------------------------------------------------------|


    o . . . o . . . o . . . o . . . o . . . o . . . o . . . o . . .
G |-----------------------9---------7---6-7---------6--6--7--9------|
D |---------------9-7---------7-------9-----------------------------|
A |-----------7/9---------------------------------------------------|
E |-7---------------------------------------------------------------|
B |-----------------------------------------------------------------|


  CHORUS:

    o . . . o . . . o . . . o . . . o . . . o . . . o . . . o . . .
G |-----------------------------------------------------------------|
D |-----------------------------------------------------------------|
A |---------------------------------------5-5---------------4-5-5---|
E |-----------------------------------------------------------------|
B |-3-0-0-2-0-0-2-3-6-6-6-6-6-6-6-6-3-3-3-----3-5-3-2-2-2-2---------|
    F F F F F F F F F F F F F F F F F F F     F F F F F F F


    o . . . o . . . o . . . o . . . o . . . o . . . o . . . o . . .
G |-------------------------------------------------------4---------|
D |---------------------------------------6-------------3---3-------|
A |-------------------------------------5-----5-------4-------4-----|
E |---------------------------------------------4-------------------|
B |-3-0-0-2-0-0-2-3-6-6-6-6-6-6-6-6-3-3-----------3-2-----------2-0-|
    F F F F F F F F F F F F F F F F F F


    o . . . o . . . o . . . o . . . o . . . o . . . o . . . o . . .
G |-------------------------------------------------6/7\6/7\6/7\----|
D |-----------------------------------------------------------------|
A |---------------------------------------5-5-5/6\5-4/5\4/5\4/5\----|
E |-----------------------------------------------------------------|
B |-3-0-0-2-0-0-2-3-6-6-6-6-6-6-6-6-3-3-3---------------------------|
    F F F F F F F F F F F F F F F F F F F


  VERSE:

    o . . . o . . . o . . . o . . . o . . . o . . . o . . . o . . . o . . . o . .
G |---------------------------------------------------------------------13--------|
D |-----------6-----------------------------------6--------------------12---------|
A |---5----/5-------------------5---8-----5----/5------------8-----11-------------|  x4
E |/4-----------------------------7---7-4---------------4-4/7--7/10--10-----------|
B |---------------0---0---x-0/6-----------------------1/--------------------------|


  PRE:

    o . . . o . . . o . . . o . . . o . . . o . . . o . . . o . . .
G |---------------1---------------1---------------1-----------------|
D |-----------------------------------------------------------------|
A |-----------------------------------------------------------------|
E |-----------------------------------------------------------------|
B |-200-0-200-0-x---0-0-0-200-x-----0-0-0-200-x-----0-0-0-200-------|
    SpS S SpS S S P SpS S SpS S S P SpS S SpS S S P SpS S SpS 


  VERSE: (first 2 times rest)

    o . . . o . . . o . . . o . . . o . . . o . . . o . . . o . . . o . . . o . .
G |---------------------------------------------------------------------13--------|
D |-----------6-----------------------------------6--------------------12---------|
A |---5----/5-------------------5---8-----5----/5------------8-----11-------------|  x2
E |/4-----------------------------7---7-4---------------4-4/7--7/10--10-----------|
B |---------------0---0---x-0/6-----------------------1/--------------------------|


  PRE:

    o . . . o . . . o . . . o . . . o . . . o . . . o . . . o . . .
G |---------------1---------------1---------------1-----------------|
D |-----------------------------------------------------------------|
A |-----------------------------------------------------------------|
E |-----------------------------------------------------------------|
B |-200-0-200-0-x---0-0-0-200-x-----0-0-0-200-x-----0-0-0-200-------|
    SpS S SpS S S P SpS S SpS S S P SpS S SpS S S P SpS S SpS 


  CHORUS:

    o . . . o . . . o . . . o . . . o . . . o . . . o . . . o . . .
G |-----------------------------------------------------------------|
D |-----------------------------------------------------------------|
A |---------------------------------------5-5---------------4-5-5---|
E |-----------------------------------------------------------------|
B |-3-0-0-2-0-0-2-3-6-6-6-6-6-6-6-6-3-3-3-----3-5-3-2-2-2-2---------|
    F F F F F F F F F F F F F F F F F F F     F F F F F F F

    o . . . o . . . o . . . o . . . o . . . o . . . o . . . o . . .
G |-------------------------------------------------------4---------|
D |---------------------------------------6-------------3-----3-----|
A |-------------------------------------5-----5-------4--------4\---|
E |---------------------------------------------4-------------------|
B |-3-0-0-2-0-0-2-3-6-6-6-6-6-6-6-6-3-3-----------3-2---------------|
    F F F F F F F F F F F F F F F F F F

    o . . . o . . . o . . . o . . . o . . . o . . . o . . . o . . .
G |-----------------------------------------------------------------|
D |-----------------------------------------------------------------|
A |---------------------------------------5-5---------------4-5-5---|
E |-----------------------------------------------------------------|
B |-3-0-0-2-0-0-2-3-6-6-6-6-6-6-6-6-3-3-3-----3-5-3-2-2-2-2---------|
    F F F F F F F F F F F F F F F F F F F     F F F F F F F

    o . . . o . . . o . . . o . . . o . . . o . . . o . . . o . . .
G |-------------------------------------------------------4---------|
D |---------------------------------------6-------------3-----3-----|
A |-------------------------------------5-----5-------4--------4\---|
E |---------------------------------------------4-------------------|
B |-3-0-0-2-0-0-2-3-6-6-6-6-6-6-6-6-3-3-----------3-2---------------|
    F F F F F F F F F F F F F F F F F F


  BRIDGE:

3/8 o . . o . . o . . o . . 
G |-------------------------|
D |-------------------------|
A |-------------------------|  x3
E |-------------------------|
B |-----------0-----------0-|
              S           S


9/8 o . . . o . . . o . . . o . . . o .
G |-----------------------------4-----7-|
D |-------------------------------------|
A |---------------------------02--2-0---|  x4
E |-------------------------------------|
B |-0-0-0-0-0-0---0---0-0-0-0-----------|
    S S S S S S   S   S S S S ShP S S P


5/4 o . . . o . . . o . . . o . . . o . . .
G |-------------------------4---------5---7-|
D |-------------------------------3---------|
A |---2-----2-----2-----2-02--2-0---3---5---|  x2
E |-----------------------------------------|
B |-0---0-x---0-x---0-x---------------------|
    S P S S P S S P S S P ShP S S P S P S P


9/8 o . . . o . . . o . . . o . . . o . 
G |-----------------------------4-----7-|
D |-------------------------------------|
A |---------------------------02--2-0---|  x4
E |-------------------------------------|
B |-0-0-0-0-0-0---0---0-0-0-0-----------|
    S S S S S S   S   S S S S ShP S S P


  CHORUS:

    o . . . o . . . o . . . o . . . o . . . o . . . o . . . o . . .
G |-----------------------------------------------------------------|
D |-----------------------------------------------------------------|
A |---------------------------------------5-5---------------4-5-5---|
E |-----------------------------------------------------------------|
B |-3-0-0-2-0-0-2-3-6-6-6-6-6-6-6-6-3-3-3-----3-5-3-2-2-2-2---------|
    F F F F F F F F F F F F F F F F F F F     F F F F F F F


    o . . . o . . . o . . . o . . . o . . . o . . . o . . . o . . .
G |-------------------------------------------------------4---------|
D |---------------------------------------6-------------3-----3-----|
A |-------------------------------------5-----5-------4--------4\---|
E |---------------------------------------------4-------------------|
B |-3-0-0-2-0-0-2-3-6-6-6-6-6-6-6-6-3-3-----------3-2---------------|
    F F F F F F F F F F F F F F F F F F


    o . . . o . . . o . . . o . . . o . . . o . . . o . . . o . . .
G |-----------------------------------------------------------------|
D |-----------------------------------------------------------------|
A |---------------------------------------5-5---------------4-5-5---|
E |-----------------------------------------------------------------|
B |-3-0-0-2-0-0-2-3-6-6-6-6-6-6-6-6-3-3-3-----3-5-3-2-2-2-2---------|
    F F F F F F F F F F F F F F F F F F F     F F F F F F F


    o . . . o . . . o . . . o . . . o . . . o . . . o . . . o . . .
G |-----------------------------------------------------------------|
D |-----------------------------------------------------------------|
A |-----------------------------------------------------------------|
E |-----------------------------------------------------------------|
B |-0---------------------------------------------------------------|


  OUTRO:

    o . . . o . . . o . . . o . . . o . . . o . . . o . . . o . . .
G |-----------------------9---------------9-------------------------|
D |---------------9-7---------7-------------------------------------|
A |-----------7/9-------------------10--------10----9-----10--------|
E |-----------------------------------------------------------9-9\--|
B |-0---------------------------------------------------------------|


    o . . . o . . . o . . . o . . . o . . . o . . . o . . . o . . .
G |-----------------------9---------7---6-7---------6--6--7--9------|
D |---------------9-7---------7-------9-----------------------------|
A |-----------7/9---------------------------------------------------|
E |-7---------------------------------------------------------------|
B |-----------------------------------------------------------------|




-----------------------------------------------------------------------------------------------

  M u t a t i s    M u t a n d i s

-----------------------------------------------------------------------------------------------



  apparently no bass line




-----------------------------------------------------------------------------------------------

  E v e r y t h i n g    a n d    N o t h i n g

-----------------------------------------------------------------------------------------------



  INTRO [:=SNARE DRUM...]:

    o . . : . . o . . : . . o . . : . . o . . : . . o . . : . . o . . : . . o . . : . . o . . : . . 
G |---------------------------------------------------------------------4*----------------------|
D |---------------------------------------------------------------------4-----------------------|
A |---------------------------------------------------------------------------------------------|
E |---------------------------------------------------------------------------------------------|
B |-0---0---------------------------0---0---------------------------0---0-----------------------|
    S   S                           S   S                           S   T

  * tapped artificial harmonic on 16th fret

    o . . : . . o . . : . . o . . : 
G |----------------------------------|
D |----------------------------------|
A |----------------------------------|
E |------------------------------/7--|
B |-0---0----------------------------|  
    S   S

  VERSE:

    o . . . o . . . o . . . o . . . o . . . o . . . o . . . o . . .      
G |---------------------------------------------------------4*------|
D |-------------------------------------------------------4*--------|
A |-----------------------------------------------------------------|
E |--------/7---7-7-------7-----8----------/7---7-7-----------------|
B |-0---0-------------0-------x-----0---0-------------0-------------|
                                                          T T

    o . . . o . . . o . . . o . . . o . . . o . . . o . . . o . . .      
G |-----------------------------------4-----------0h2---------4-----|
D |---------------------------------2-------4-----------4---2-------|
A |---------------------------------------2-----2-------------------|
E |--------/7---7-7-------7-----8\----------------------------------|
B |-0---0-------------0-------x-------------------------------------|


    o . . . o . . . o . . . o . . . o . . . o . . . o . . . o . . .      
G |---------------------------------------------------------4*------|
D |-------------------------------------------------------4*--------|
A |-----------------------------------------------------------------|
E |--------/7---7-7-------7-----8----------/7---7-7-----------------|
B |-0---0-------------0-------x-----0---0-------------0-------------|
                                                          T T

    o . . . o . . . o . . . o . . . o . . . o . . . o . . . o . . .      
G |-----------------------------------4-----6---------7-----9-------|
D |---------------------------------2----/4-------4/5----/7---------|
A |-----------------------------------------------------------------|
E |--------/7---7-7-------7-----8-----------------------------------|
B |-0---0-------------0-------x-------------------------------------|


  CHORUS:

    o . . . o . . . o . . . o . . . o . . . o . . . o . . . o . . .  
G |-----------------------------------------------------------------|
D |-----------------------------------------------------------------|
A |---------2---2-2---------2-2-3-----------2---2-2---------2-2-3---|  x2
E |-----------------------------------------------------------------|
B |-0---0-------------0-0-----------0---0-------------0---0---------|
    S   S   F   F F   S S   F F F   S   S   F   F F   S   S F F F


  VERSE:

    o . . . o . . . o . . . o . . . o . . . o . . . o . . . o . . .      
G |---------------------------------------------------------4*------|
D |-------------------------------------------------------4*--------|
A |-----------------------------------------------------------------|
E |--------/7---7-7-------7-----8----------/7---7-7-----------------|
B |-0---0-------------0-------x-----0---0-------------0-------------|


    o . . . o . . . o . . . o . . . o . . . o . . . o . . . o . . .      
G |-----------------------------------4-----------0h2---------4-----|
D |---------------------------------2-------4-----------4---2-------|
A |---------------------------------------2-----2-------------------|
E |--------/7---7-7-------7-----8\----------------------------------|
B |-0---0-------------0-------x-------------------------------------|


    o . . . o . . . o . . . o . . . o . . . o . . . o . . . o . . .      
G |---------------------------------------------------------4*------|
D |-----------------------------6-------------------------4*--------|
A |-----------------------------------------------------------------|
E |--------/7---7-7-------7-----3----------/7---7-7-----------------|
B |-0---0-------------0-------x-----0---0-------------0-------------|


    o . . . o . . . o . . . o . . . o . . . o . . . o . . . o . . .      
G |---------------------------------4-4-/---6-6-/---7-7-/---9-9-\---|
D |---------------------------------2-2-/---4-4-/---5-5-/---7-7-\---|
A |-----------------------------------------------------------------|
E |--------/7---7-7-------7-----8-----------------------------------|
B |-0---0-------------0-------x-------------------------------------|


  CHORUS:

    o . . . o . . . o . . . o . . . o . . . o . . . o . . . o . . .  
G |-----------------------------------------------------------------|
D |-----------------------------------------------------------------|
A |---------2---2-2---------2-2-3-----------2---2-2---------2-2-3---|  x4
E |-----------------------------------------------------------------|
B |-0---0-------------0-0-----------0---0-------------0---0---------|
    S   S   F   F F   S S   F F F   S   S   F   F F   S   S F F F


  PRE BRIDGE:

    o . . . o . . . o . . . o . . .
G |-4-4-4-4-----6-6-6-6-----7-7-----| >  strum
D |-5-5-5-5-----5-5-5-5-----5-5-----| >
A |---------------------------------|
E |---------------------------------|
B |---------------------------------|


  BRIDGE:

    o . . . o . . . o . . . o . . .
G |-1-------------------------------|
D |---------------------------------|
A |---------------------------------|  x4
E |---------------------------------|
B |---3-2-0-----2-0-0---2-3-2-0-----|
    P F F F     F F F   F F F F


    o . . . o . . . o . . . o . . .
G |---------------------------------|
D |---------------------------------|
A |---------------------------------|  x4
E |-4-------------------------------|
B |---3-2-0-----2-0-0---2-3-2-0-----|
    F F F F     F F F   F F F F


    o . . . o . . . o . . . o . . .
G |---------------------------------|
D |---------------------------------|
A |---------------------------------|  x4
E |---------------------------------|
B |-0---0---------------------------|


  BASS 'SOLO':

    o . . . o . . . o . . . o . . . o . . . o . . . o . . . o . . . 
G |-------------7-\-4-------4-----------9-/-11--11--------------7---|
D |---------------------4---------4-----------------------x-7/9-----|
A |-----------------------------------------------------------------|
E |-----------------------------------------------------------------|
B |-0---0-----------------------------------------------------------|

    o . . . o . . . o . . . o . . . o . . . o . . . o . . . o . . . 
G |----------------/9---------------------------7-----------9\------|
D |---------------------12--11--------------9-------7-/-9-----------|
A |-----------------------------10\---------------------------------|
E |---------------------------------7---7---------------------------|
B |-x---0---0-------------------------------------------------------|

    o . . . o . . . o . . . o . . . o . . . o . . . o . . . o . . . 
G |-----9-/-11------------------7-------------------------------1414|  (14,14)
D |-----------------------9---------------------------------1212----|  (12,12)
A |-----------------------------------------------------------------|
E |-7---------------7---------------------------3-3---7-------------|
B |-----------------------------------------------------------------|

    o . . . o . . . o . . . o . . . o . . . o . . . o . . . o . . . 
G |-------------7---11\-9---------------9-/-11--------------9---7---|
D |---------9-----------------------9-----------11------------------|
A |-7-/-9-------------------7-/-9-------------------7-/-9-----------|
E |(0)--------------------------------------------------------------|
B |-----------------------------------------------------------------|

    o . . . o . . . o . . . o . . . o . . . o . . . o . . . o . . . 
G |-------------------9-------------------------7-------------------|
D |---------------------12--11--------------9-------7-/-9---12------|
A |---------------10------------10--------------------------------10|
E |---------------------------------7-----7-------------------------|
B |-----------------------------------------------------------------|

    o . . . o . . . o . . . o . . . o . . . o . . . o . . . o . . . 
G |-----9-/-11------------------------------------------------------|
D |-------------------------9---------------9---------------11------|
A |-9-------------------9---------------10--------------10----------|
E |-----------------------------------------------------------------|
B |-----------------------------------------------------------------|

    o . . . o . . . o . . . o . . . o . . . o . . . o . . . o . . .
G |---------7-------------------------------------------------------|
D |---------------------------------9-----9-----5-----5-----12\-----|  >
A |---------5-----------------------9-----9-----5-----5-----12\-----|  > strum
E |---------------------------------7-----7-----3-----3-----10\-----|  >
B |-----------------------------------------------------------------| 


  CHORUS:

    o . . . o . . . o . . . o . . . o . . . o . . . o . . . o . . .  
G |-----------------------------------------------------------------|
D |-----------------------------------------------------------------|
A |---------2---2-2---------2---3-----------2---2-2---------2---3---|  x2
E |-----------------------------------------------------------------|
B |-0---0-------------0-0-----------0---0-------------0---0---------|
    S   S   F   F F   S S   F F F   S   S   F   F F   S   S F F F


    o . . . o . . . o . . . o . . .
G |-0-----------0-----------0-------|
D |-0-----------0-----------0-------|
A |---------------------------------|
E |---------------------------------|
B |-------0-----------0---------0---|
    P     S     P     S     P   S


    o . . . o . . . o . . . o . . . o . . . o . . . o . . . o . . .  
G |-----------------------------------------------------------------|
D |-----------------------------------------------------------------|
A |---------2---2-2---------2---3-----------2---2-2---------2---3---|  x2
E |-----------------------------------------------------------------|
B |-0---0-------------0-0-----------0---0-------------0---0---------|
    S   S   F   F F   S S   F F F   S   S   F   F F   S   S F F F


  PRE BRIDGE:

    o . . . o . . . o . . . o . . .
G |-4-4-4-4-----6-6-6-6-----7-7-----|  >  strum
D |-5-5-5-5-----5-5-5-5-----5-5-----|  >
A |---------------------------------|
E |---------------------------------|
B |---------------------------------|


  BRIDGE:

    o . . . o . . . o . . . o . . .
G |-1-------------------------------|
D |---------------------------------|
A |---------------------------------|  x4
E |---------------------------------|
B |---3-2-0-----2-0-0---2-3-2-0-----|
    P F F F     F F F   F F F F


    o . . . o . . . o . . . o . . .
G |---------------------------------|
D |---------------------------------|
A |---------------------------------|  x4
E |-4-------------------------------|
B |---3-2-0-----2-0-0---2-3-2-0-----|
    F F F F     F F F   F F F F


  END:

    o . . . o . . . o . . . o . . .
G |---------------------------------|
D |---------------------------------|
A |---------------------------------|
E |---------------------------------|
B |-0---0---3---0-0---3---0-3-0-----|
    S   S   S   S S   S   F F F



-----------------------------------------------------------------------------------------------

  S e v e r e d

-----------------------------------------------------------------------------------------------



  INTRO:

    o . . . o . . . o . . . o . . . o . . . o . . . o . . . o . . . 
G |----11-/12-11--9--------------------11-/12-11--9-----------------|
D |---9-------------109---9^9\--------9-----------------------------|
A |/9------------------------------/9---------------109---9^9\------|
E |-----------------------------------------------------------------|
B |-----------------------------------------------------------------|


    o . . . o . . . o . . . o . . . o . . . o . . . o . . . o . . . 
G |-5-----4-5-------5-------4-------5-----4-5-----------------------|
D |-5-----4-5-----------------------5-----4-5-------5-------4-------|
A |-----------------------------------------------------------------|
E |-----------------------------------------------------------------|
B |-------------------0-0-x---0-0-x-------------------0-0-x---0-0-x-|
                    P S S S P S S S                 P S S S P S S S


    o . . . o . . . o . . . o . . . o . . . o . . .
G |-5-----4-5---------------------------------------|
D |-5-----4-5---------------------------------------|
A |-------------------------------------------------|
E |-------------------------------------------------|
B |-----------------0-0-0-0-0-0-0-0-1-----0-1-------|
                    S S S S S S S S S     S S

    
  VERSE:

    o . . . o . . . o . . . o . . . o . . . o . . . o . . . o . . .
G |-----------------------------------------------------------------|
D |-----------------------------------------------------------------|
A |---------------------------------------------------------------2-|
E |---------------------------2-3-2---------------------------2-3---|
B |-0-0-0-0-0---0-0-0-0-0---0-------0-0-0-0-0---0-0-0-0-0---0-------|
    S S S S S   S S S S S   S S S S S S S S S   S S S S S   S S S S


    o . . . o . . . o . . . o . . . o . . . o . . . o . . . o . . .
G |-----------------------------------------------------------------|
D |-----------------------------------------------------------------|
A |-----------------------------------------------------------------|
E |---------------------------2-3-2---------------------------------|
B |-0-0-0-0-0---0-0-0-0-0---0-------0-0-0-0-0---0-0-0-0-0---1-------|
    S S S S S   S S S S S   S S S S S S S S S   S S S S S   S


    o . . . o . . . o . . . o . . . 
G |---------------------------------| 
D |---------------------------------|
A |---------------------------------|  x3
E |---------------------------------|
B |-0-0-0---------000-0-0-----------|
    F F F         FFF F F


    o . . . o . . . o . . . o . . . o . . . o . . . o . . . o . . .
G |-----------------------------------------------------------------|
D |-----------------------------------------------------------------|
A |-----------------------------------------------------------------|
E |---------------------------2-3-2---------------------------2-3-2-|
B |-0-0-0-0-0---0-0-0-0-0---0-------0-0-0-0-0---0-0-0-0-0---0-------|
    S S S S S   S S S S S   S S S S S S S S S   S S S S S   S S S S


    o . . . o . . . o . . . o . . . o . . . o . . . 
G |-------------------------1212--1212--1212--1212--|  (12, not 1,2)
D |-------------------------------------------------|
A |-------------------------1010--1010--1010--1010--|  (10, not 1,0)
E |-------------------------------------------------|
B |-1-1---1-1---1-1---1-1---------------------------|


G |-------------------------------------------------|
D |-------------------------------------------------|
A |-------------------------------------------------|
E |---------------------------2-3-2-----------------|
B |-0-0-0-0-0---0-0-0-0-0---0-------0-0-0-0-0-0-0-0-|
    S S S S S   S S S S S   S S S S S S S S S S S S


  CHORUS:

    o . . . o . . . o . . . o . . . o . . . o . . . o . . . o . . .
G |--------------------------------------------11\9---------9\8-----|
D |-----------------------------------------------------------------|
A |---------------------------------------------9\7---------7\6-----|  x3
E |-3-3-3-3-5-0-3-3-3-3-5-0-0-3-------3-3-3-5-----------------------|
B |-----------------------------3-2-0---------X-----0-0-0-X-----0-X-|
    F F F F F F F F F F F F F F F F F F F F F F P   S S S S P   S S


    o . . . o . . . o . . . o . . . o . . . o . . . o . . . o . . .
G |--------------------------------------------11\9-----------------|---|
D |---------------------------------------------------------5-4-3-2-|---|
A |---------------------------------------------9\7-----------------|-3-|
E |-3-3-3-3-5-0-3-3-3-3-5-0-0-3-------3-3-3-5-----------------------|---|
B |-----------------------------3-2-0---------X-----0-0-0-X---------|---|
    F F F F F F F F F F F F F F F F F F F F F F P   S S S S


  VERSE:

    o . . . o . . . o . . . o . . . 
G |---------------------------------| 
D |---------------------------------|
A |---------------------------------|  x3
E |---------------------------2-3-2-|
B |-0-0-0---------000-0-0---0-------|
    F F F         FFF F F   S S S S


    o . . . o . . . o . . . o . . . o . . . o . . . o . . . o . . .
G |-------------------------------------------------------------6---|
D |-----------------------------------7-7\-------------------/4-----|
A |---------------------------4-----------------------4-------------|
E |------------------------/2----------------------/2---------------|
B |-0-0-0---------000-0-0---------------------0---------------------|
    F F F         FFF F F


    o . . . o . . . o . . . o . . . o . . . o . . . o . . . o . . .
G |-----------------------------------------------------------11\---|
D |-----------------------------------7-7\--------------------11\---|
A |---------------------------4-----------------------4-------------|
E |------------------------/2----------------------/2---------------|
B |-0-0-0---------000-0-0---------------------0---------------------|
    F F F         FFF F F


    o . . . o . . . o . . . o . . . 
G |---------------------------------|
D |---------------------------------|
A |---------------------------------|  x5
E |---------------------------------|
B |-0-0-0---------000-0-0-----------|
    F F F         FFF F F

    o . . . o . . . o . . . o . . . 
G |---------------------------------|
D |---------------------------------|
A |---------------------------------|
E |---------------------------------|
B |-0-0-0---------000-0-0////\\\\\\-|
    F F F         FFF F F


    o . . . o . . . o . . . o . . . o . . . o . . . 
G |-------------------------1212--1212--1212--1212--|  (12, not 1,2)
D |-------------------------------------------------|
A |-------------------------1010--1010--1010--1010--|  (10, not 1,0)
E |-------------------------------------------------|
B |-1-1---1-1---1-1---1-1---------------------------|


  MID PART:

    o . . . o . . . o . . . o . . . o . . . o . . . o . . . o . . . O .
G |---------------------------------------------------------------------|
D |---------------------------------------------------------------------|
A |----\9-----7-----5-----4-----0h2------------\9-----7-----0h2---------|
E |---------------------------------------------------------------------|
B |-0-------0-----0-----0-----0-----0-0-3-2-0-------0-----0-----0-0-3-2-|
                                    F F F F F                   F F F F


    o . . . o . . . o . . . o . . . o . . . o . . . o . . . o . . . O .
G |-------------------------------------------------7-------------------|
D |-------------------------------------------------8-------------------|
A |----\9-----7-----5-----4-----0h2-----2-----2-----8-------------------|
E |---------------------------------------------------------------------|
B |-0-------0-----0-----0-----0-----0-X---0-X---0-X---------------------|
                                    S S P S S P S S P


    o . . . o . . . o . . . o . . . o . . . o . . . o . . . o . . . O .
G |-------11----9-----7-----6---------------------11----9-----4---------|
D |---------------------------------------------------------------------|
A |----\9-----7-----5-----4-----0h2------------\9-----7-----02----------|
E |---------------------------------------------------------------------|
B |-0-------0-----0-----0-----0-----0-0-3-2-0-------0-----0-----0-0-3-2-|
                                    F F F F F                h  F F F F


    o . . . o . . . o . . . o . . . o . . . o . . . o . . . o . . . O .
G |-------11----9-----7-----6-----4-----------------7-------------------|
D |-------------------------------------------------8-------------------|
A |----\9-----7-----5-----4-----2-------2-----2-----8-------------------|
E |---------------------------------------------------------------------|
B |-0-------0-----0-----0-----0-----0-X---0-X---0-X---------------------|
                                    S S P S S P S S P


G |---|
D |-2-|  > pick
A |---|
E |---|
B |---|


  BRIDGE:

    o . . . o . . . o . . . o . . . o . . . o . . . o . . . o . . .     _
G |---------------------------2-2-2---------------------------4-4-4-|    |
D |---------------------------2-2-2---------------------------4-4-4-|    |
A |-----------------------------------------------------------------|    |
E |-----------------------------------------------------------------|    |
B |-0-0-0-0-0---0-0-0-0-0---X-------0-0-0-0-0---0-0-0-0-0---X-------|    |
    S S S S S   S S S S S   S       S S S S S   S S S S S   S            |
                                                                         |  x2
                                                                         |
    o . . . o . . . o . . . o . . . o . . . o . . . o . . . o . . .      |
G |---------------------------6-6-6---------------------------7-7-7-|    |
D |---------------------------6-6-6---------------------------7-7-7-|    |
A |-----------------------------------------------------------------|    |
E |-----------------------------------------------------------------|    |
B |-0-0-0-0-0---0-0-0-0-0---X-------0-0-0-0-0---0-0-0-0-0---X-------|   _|
    S S S S S   S S S S S   S       S S S S S   S S S S S   S

    o
G |---|
D |---|
A |---|
E |---|
B |-0-|
    S

    o . . . . . o . . . . . o . . . . . 
G |---------------------------------4/6-|
D |---------------------------------3/5-|
A |-------------------------------------|
E |-------------------------------------|
B |-0-0-0-0-0---0-0-0-0-0---0-0-0-X-----|
    S S S S S   S S S S S   S S S S


    o . . . . . o . . . . . o . . . . . 
G |---------------------------------6/4-|
D |---------------------------------5/3-|
A |-------------------------------------|
E |-------------------------------------|
B |-0-0-0-0-0---0-0-0-0-0---0-0-0-X-----|
    S S S S S   S S S S S   S S S S


    o . . . . . o . . . . . o . . . . . 
G |---------------------------------4/6-|
D |---------------------------------3/5-|
A |-------------------------------------|
E |-------------------------------------|
B |-0-0-0-0-0---0-0-0-0-0---0-0-0-X-----|
    S S S S S   S S S S S   S S S S


    o . . . . . o . . . . . o . . . . . 
G |---------------------------------6/4-|
D |---------------------------------5/3-|
A |-------------------------------------|
E |-------------------------------------|
B |-0-0-0-0-0---0-0-0-0-0---0-0-0-X-----|
    S S S S S   S S S S S   S S S S


    o . . . o . . . o . . . o . . . o . . . o . . . 
G |-------------------------1212--1212--1212--1212--|  (12, not 1,2)
D |-------------------------------------------------|
A |-------------------------1010--1010--1010--1010--|  (10, not 1,0)
E |-------------------------------------------------|
B |-1-1---1-1---1-1---1-1---------------------------|


    o . . . o . . . o . . . o . . . 
G |---------------------------------| 
D |---------------------------------|
A |---------------------------------|  X3
E |---------------------------2-3-2-|
B |-0-0-0---------000-0-0---0-------|
    F F F         FFF F F   S S S S


    o . . . o . . . o . . . o . . . 
G |-------------------------6-------| 
D |-------------------------7-------|
A |-------------------------7-------|
E |---------------------------------|
B |-0-0-0---------000-0-0-----------|
    F F F         FFF F F   P
 

  BASS SOLO:

G |-{---6}-----14p-(14p)-15p--14p--------------|
D |-{--7-}--11p--------------------14p-15\14\--|
A |-{-7--}-------------------------------------|
E |--------------------------------------------|
B |--------------------------------------------|
            T  T         T    T    T   T  T

G |-{---6}-----14p-------15p--14p--------------|
D |-{--7-}--11p--------------------14/15\11----|
A |-{-7--}-------------------------------------|
E |--------------------------------------------|
B |--------------------------------------------|
            T  T         T    T    T   T  T

                                                   _
G |-{---7}-----14p-------15p--14p--------------|    |
D |-{--8-}--12p--------------------14p-15\14\--|    |
A |-{-8--}-------------------------------------|    |
E |--------------------------------------------|    |
B |--------------------------------------------|    |
            T  T         T    T    T   T  T         |  x8
                                                    |
                                                    |
G |-{---6}-----14p-------15p--14p--------------|    |
D |-{--7-}--11p--------------------14/15\11----|    |
A |-{-7--}-------------------------------------|    |
E |--------------------------------------------|    |
B |--------------------------------------------|   _|
            T  T         T    T    T   T  T


G |-{---7}-----14p-------15p--17p--15p-14\12---|
D |-{--8-}--12p--------------------------------|
A |-{-8--}-------------------------------------|
E |--------------------------------------------|
B |--------------------------------------------|
            T  T         T    T    T   T  T


G |-{---6}-------------------------------------|
D |-{--7-}-------------------------------------|
A |-{-7--}----------------------------///\\\---|
E |-----------------------------------///\\\---|
B |-----------------------------------///\\\---|
             strum

  CHORUS:

    o . . . o . . . o . . . o . . . o . . . o . . . o . . . o . . .
G |--------------------------------------------11\9---------9\8-----|
D |-----------------------------------------------------------------|
A |---------------------------------------------9\7---------7\6-----|  endless outro...
E |-3-3-3-3-5-0-3-3-3-3-5-0-0-3-------3-3-3-5-----------------------|
B |-----------------------------3-2-0---------X-----0-0-0-X-----0-X-|
    F F F F F F F F F F F F F F F F F F F F F F P   S S S S P   S S




-----------------------------------------------------------------------------------------------

  R e c o m b i n a n t    R e s u r g e n c e

-----------------------------------------------------------------------------------------------



  apparently no bass line




-----------------------------------------------------------------------------------------------

  P r o d

-----------------------------------------------------------------------------------------------



  VERSE:

    o . . . o . . . o . . . o . . .
G |---------------------------------|
D |---------------------------------|
A |---------4p2-------------4---4h5-|  x8
E |---------------------------------|
B |-2-----x-----2-----2---x---------|


    o . . . o . . . o . . . o . . .
G |---------------------------------|
D |---------3---------------3---3h5-|
A |-4-4-4-4---4-4-4-4-4-4-4---------|  x4
E |---------------------------------|
B |---------------------------------|
    F F F F F F F F F F F F F   F

    o . . . o . . . o . . . o . . .
G |---------------------------------|
D |---------------------------------|
A |---------4p2-------------4---4h5-|  x2
E |---------------------------------|
B |-2-----x-----2-----2---x---------|


    o . . . o . . . o . . . o . . .
G |---------------------------------|
D |---------------------------------|
A |-------2-----------2---------2---|
E |---------------------------------|
B |-2-----------2-----------2-------|


    o . . . o . . . o . . . o . . .
G |---------------------------------|
D |---------------------------------|
A |-------4-----------4---------4---|
E |---------------------------------|
B |-3-----------3-----------3-------|
          P

    o . . . o . . . o . . . o . . .
G |---------------------------------|
D |---------------------------------|
A |---------------------------------|  x4 (rest)
E |---------------------------------|
B |---------------------------------|


    o . . . o . . . o . . . o . . .
G |---------------------------------|
D |---------3---------------3---3h5-|
A |-4-4-4-4---4-4-4-4-4-4-4---------|  x3
E |---------------------------------|
B |---------------------------------|
    F F F F F F F F F F F F F   F


    o . . . o . . . o . . . o . . .
G |---------------------------------|
D |---------------------------------|
A |-------------------------5-\-4---|
E |---------------------------------|
B |-2-----0-----2-----0-------------|


  CHORUS:

    o . . . o . . . o . . . o . . . o . . . o . . . o . . . o . . . o . . .
G |-1-----------1-----------1-----------1-----------------------------------|
D |-0-----------0-----------0-----------0-----------------------------------|
A |-------------------------------------------------------------------------|  x3
E |-------------------------------------------------------------------------|
B |-----2-----------2-----------2-----------2-------------------------------|
    P   S       P   S       P   S       P   S


  PRE:

    o . . . o . . . o . . . o . . .
G |---------------------------------|
D |---------------------------------|
A |---------------------------------|  x4
E |---------------------------------|
B |-2---2---------------------------|
    S   S


  VERSE:

    o . . . o . . . o . . . o . . .
G |---------------------------------|
D |---------------------------------|
A |---------4p2-------x-----4---4h5-|  x8
E |---------------------------------|
B |-2---x-x-----2---x-----x---x-----|
    S   S S P   S   S P   S P S P


    o . . . o . . . o . . . o . . .
G |---------------------------------|
D |---------------------------------|
A |-----------4p2-------------4h5---|  x4
E |---------------------------------|
B |-2-2-----x-------2-2-----x-------|
    S S     S P     S S     S P


    o . . . o . . . o . . . o . . .
G |---------------------------------|
D |---------3---------------3-3-3h5-|
A |-4-4-4-4---4-4-4-4-4-4-4---------|  x3
E |---------------------------------|
B |---------------------------------|
    F F F F F F F F F F F F F F F


    o . . . o . . . o . . . o . . .
G |---------------------------------|
D |---------------------------------|
A |-------------------------4---4h5-|
E |---------------------------------|
B |-2-----0-----2-----0-------------|


  CHORUS:

    o . . . o . . . o . . . o . . . o . . . o . . . o . . . o . . . o . . .
G |-1-----------1-----------1-----------1-----------------------------------|
D |-0-----------0-----------0-----------0-----------------------------------|
A |-------------------------------------------------------------------------|  x3
E |-------------------------------------------------------------------------|
B |-----2-----------2-----------2-----------2-------------------------------|
    P   S       P   S       P   S       P   S


  MID PART:

    o . . . o . . . o . . . o . . . o . . . o . . .
G |-------------------------------------------------|
D |-------------------------------------------------|
A |---------4---4-/-5---4-2h4-------------------4-4-|
E |-------------------------------------------------|
B |-0-h-2-------------------------------------------|


    o . . . o . . . o . . . o . . . o . . . o . . .
G |-------------------------------------------------|
D |-------------------------------------------------|
A |-5-----------------------2-h-4---4-------5-------|
E |-------------------------------------------------|
B |-----------------2-------------------------------|


    o . . . o . . . o . . . o . . . o . . . o . . .
G |-------------------------------------------------|
D |-------------------------------------------------|
A |---------4---4-/-5---4-2h4---------------------4-|
E |-------------------------------------------------|
B |-0-h-2-------------------------------------------|


    o . . . o . . . o . . . o . . . o . . . o . . .
G |-------------------------------------------------|
D |-0-h-2-------------------------------------------|
A |---------4---------------2-h-4---4-------5-------|
E |-------------------------------------------------|
B |-----------------2-------------------------------|


    o . . . o . . . o . . . o . . . o . . . o . . .
G |-------------------------------------------------|
D |-------------------------------------------/-9---|
A |-------------------------------------------------|
E |-------------------------------------------------|
B |-2---2---------------2---2---2-------------------|


    o . . . o . . . o . . . o . . . o . . . o . . .
G |-11----------9-----------------------------------|
D |-------\-7---------------------------------------|
A |-------------------------2-h-4---4-------5-------|
E |-------------------------------------------------|
B |-------------------------------------------------|


    o . . . o . . . o . . . o . . . o . . . o . . .
G |-------------------------------------------------|
D |-------------------------------------------------|
A |---------4---4-/-5---4-2h4---------------------4-|
E |-------------------------------------------------|
B |-0-h-2-------------------------------------------|


    o . . . o . . . o . . . o . . . o . . . o . . .
G |-------------------------------------------------|
D |-0-h-2-------------------------------------------|
A |---------4---------------2-h-4---4-------5-------|
E |-------------------------------------------------|
B |-----------------2-------------------------------|


  PRE:

    o . . . o . . . o . . .      _
G |-------------------------|     |
D |-------------------------|     |
A |---------4-------4/5\4---|  x3 |
E |-------------------------|     |
B |-0-h-2-------2-----------|     |
                                  |
                                  |  x4
    o . . . o . . . o . . .       |
G |-----------------2-------|     |
D |-----------------0-------|     |
A |---------4---------------|     |
E |-------------------------|     |
B |-0-h-2-------x-----------|    _|


    o . . . o . . . o . . . o . . .
G |-0-------------------------------|
D |-0-------------------------------|
A |-0-------------------------------|
E |-0-------------------------------|
B |-0-------------------------------|
  - >>>>>>>>>>>>>>>>>>>>>>>>>>>>>>> +  bring volume up from 0 and rest
                       

  HEAVY PART:

    o . . . o . . . o . . . o . . . o . . . o . . . o . . . o . . .      _
G |---------------------------------------------------------7\------|     |
D |-----------------------------------------------------------------|     |
A |---------------------------------------------------------5\------|  x3 |
E |-----------------------------------------------------------------|     |
B |-2---2---2---2---3---2---2---2---2---2---3---2---2---x-----------|     |
    F   F   F   F   F   F   F   F   F   F   F   F   F   S   P             |
                                                                          |  x2
                                                                          |
    o . . . o . . . o . . . o . . . o . . . o . . . o . . . o . . .       |
G |-------------------------------------------------2---2-----------|     |
D |-------------------------------------------------0---0-----------|     |
A |-----------------------------------------------------------------|     |
E |-----------------------------------------------------------------|     |
B |-2---2---2---2---3---2---2---2---2---2---3---2-------------------|    _|
    F   F   F   F   F   F   F   F   F   F   F   S


  SOFT PART:

    o . . . o . . . o . . . o . . . o . . . o . . . o . . . o . . .
G |-----------------9\------------------------------9---------------|
D |/11------------------------9/11----------9-h-11------9-/-11--\---|
A |---------9-h-11--------------------------------------------------|
E |-----------------------------------------------------------------|
B |-----------------------------------------------------------------|


    o . . . o . . . o . . . o . . . o . . . o . . . o . . . o . . .
G |-----------------9-\---------------------------------11--\-------|
D |---------------------------9/11------9-h-11----------11--\-------|
A |-4---/---9-h-11--------------------------------------------------|
E |-----------------------------------------------------------------|
B |-----------------------------------------------------------------|


    o . . . o . . . o . . . o . . . o . . . o . . . o . . . o . . .
G |-----------------9-\-----------------------------9---------------|
D |---------------------------9/11----------9-h-11------9-h-11--\---|
A |-4---/---9-h-11--------------------------------------------------|
E |-----------------------------------------------------------------|
B |-----------------------------------------------------------------|


    o . . . o . . . o . . . o . . . o . . . o . . . o . . . o . . .
G |-----------------9-\---------------------13------------------11--|
D |---------------------------9/11------------------14--------------|
A |-4---/---9-h-11--------------------------------------12\-11------|
E |-----------------------------------------------------------------|
B |-----------------------------------------------------------------|


    o . . . o . . . o . . . o . . . o . . . o . . . o . . . o . . .
G |-----------------9-\-----------------------------9---------------|
D |---------------------------9/11----------9-h-11------9-/-11--\---|
A |-4---/---9-h-11--------------------------------------------------|
E |-----------------------------------------------------------------|
B |-----------------------------------------------------------------|


    o . . . o . . . o . . . o . . . o . . . o . . . o . . . o . . .
G |-----------------9-\---------------------------------11----------|
D |---------------------------9/11------9-/-11----------11----------|
A |-4---/---9-h-11--------------------------------------------------|
E |-----------------------------------------------------------------|
B |-----------------------------------------------------------------|


    o . . . o . . . o . . . o . . . o . . . o . . . o . . . o . . .
G |-----------------9-\-----------------------------9---------------|
D |---------------------------9/11----------9-h-11------9-h-11--\---|
A |-4---/---9-h-11--------------------------------------------------|
E |-----------------------------------------------------------------|
B |-----------------------------------------------------------------|


    o . . . o . . . o . . . o . . . o . . . o . . . o . . . o . . .
G |-----------------9-\---------------------13----------------------|
D |---------------------------9/11----------------------14-\--------|
A |-4---/---9-h-11----------------------------------12--------------|
E |-----------------------------------------------------------------|
B |-----------------------------------------------------------------|


    o . . . o . . . o . . . o . . . o . . . o . . . o . . . o . . .
G |-------------------------------------------------9---------------|
D |---------------------------9/11----------9-h-11----------9-h-11--|
A |-4---/---9-h-11--------------------------------------------------|
E |-----------------------------------------------------------------|
B |-----------------------------------------------------------------|


    o . . . o . . . o . . . o . . . o . . . o . . . o . . . o . . .
G |-----------------------------------------------------11\-9-\-----|
D |---------------------------9/11------9---------------------------|
A |-4---/---9-h-11--------------------------9-\---------------------|
E |-----------------------------------------------------------------|
B |-----------------------------------------------------------------|


    o . . . o . . . o . . . o . . . o . . . o . . . o . . . o . . .
G |-----------------------------------------------------------------|
D |-----------------------------------------------------------------|
A |-----------------------------------------------------------------|
E |-----------------------------------------------------------------|
B |-0---0-------0-----------0-----------12~~~~~~----12~~12~-----\---|
    S   S       S           S

    o . . . o . . . o . . . o . . . o . . . o . . . o . . . o . . .
G |-9---8-----------------------------------------------------------|
D |-------------9---------------------------------------------------|
A |-------------------------9-----------7-----------6---\---2-------|
E |-----------------------------------------------------------------|
B |-----------------------------------------------------------------|


    o . . . o . . . o . . . o . . . o . . . o . . . o . . . o . . .
G |-----------------9-\-----------------------------9---------------|
D |---------------------------9/11----------9-h-11------9-h-11--\---|
A |-4---/---9-h-11--------------------------------------------------|
E |-----------------------------------------------------------------|
B |-----------------------------------------------------------------|


    o . . . o . . . o . . . o . . . o . . . o . . . o . . . o . . .
G |-----------------9-\---------------------------------11--\-------|
D |---------------------------9/11------9-/-11----------11--\-------|
A |-4---/---9-h-11--------------------------------------------------|
E |-----------------------------------------------------------------|
B |-----------------------------------------------------------------|


    o . . . o . . . o . . . o . . . o . . . o . . . o . . . o . . .
G |-----------------------------------------------------------------|
D |-----------------2-------------------------------2---------------|
A |-4-------2-h-4-----------2-------4-------2-h-4-------2-h-4-------|
E |-----------------------------------------------------------------|
B |-----------------------------------------------------------------|


    o . . . o . . . o . . . o . . . o . . . o . . . o . . . o . . .
G |-----------------------------------------------------------------|
D |-----------------2-----------------------------------------------|
A |-4-------2-h-4-----------2-------4---2-h-4-----------------------|
E |-----------------------------------------------------------------|
B |-------------------------------------------------2---2---2-------|


  HEAVY PART 2:

    o . . . o . . . o . . .
G |-------------1-----------|
D |-------------0-----------|
A |-------------------------|  x10
E |-------------------------|
B |-2---2-----------3---0---|
    S   S       P   S   S


    o . . . o . . . o . . .
G |-------------1-----------|
D |-------------0-----------|
A |-------------------------|  slowly!
E |-------------------------|
B |-2---2-----------3---0---|
    S   S       P   S   S


    o . . . o . . . o . . . o . . . o . . . o . . . o . . . o . . .
G |-----------------------------------------------------------------|
D |-----------------------------------------------------------------|  hold for
A |-----------------------------------------------------------------|  3x then
E |-----------------------------------------------------------------|  rest 1
B |-2---------------------------------------------------------------|
    S


  PRE:

    o . . . o . . . o . . . o . . .
G |---------------------------------|
D |---------------------------------|
A |---------------------------------|  x4
E |---------------------------------|
B |-2-2-----------------------------|
    S S


  VERSE:

    o . . . o . . . o . . . o . . .
G |---------------------------------|
D |---------------------------------|
A |---------4p2-------x-----4---4h5-|  x2
E |---------------------------------|
B |-2---x-x-----2---x-----x---x-----|
    S   S S P   S   S P   S P S P



    o . . . o . . . o . . . o . . .
G |---------------------------------|
D |---------3---------------3-3-3h5-|
A |-4-4-4-4---4-4-4-4-4-4-4---------|
E |---------------------------------|
B |---------------------------------|
    F F F F F F F F F F F F F F F


    o . . . o . . . o . . . o . . .
G |---------------------------------|
D |---------3-----------------------|
A |-4-4-4-4---4-4-4-4-4-4-4-4---4h5\|
E |---------------------------------|
B |---------------------------------|
    F F F F F F F F F F F F F   F



  CHORUS:

    o . . . o . . . o . . . o . . . o . . . o . . . o . . . o . . . o . . .
G |-1-----------1-----------1-----------1-----------------------------------|
D |-0-----------0-----------0-----------0-----------------------------------|
A |-------------------------------------------------------------------------|
E |-------------------------------------------------------------------------|
B |-----2-----------2-----------2-----------2-------------------------------|
    P   S       P   S       P   S       P   S


    o . . . o . . . o . . . o . . . o . . . o . . . o . . . o . . . o . . .
G |-1-----------1-----------1-----------1---------------------------x-------|
D |-0-----------0-----------0-----------0-----------------------------------|
A |-------------------------------------------------------------------------|
E |-------------------------------------------------------------------------|
B |-----2-----------2-----------2-----------2---------------0-----x---x-0---|
    P   S       P   S       P   S       P   S


    o . . . o . . . o . . . o . . . o . . . o . . . o . . . o . . . o . . .
G |-1-----------1-----------1-----------1-----------------------------------|
D |-0-----------0-----------0-----------0-----------------------------------|
A |-------------------------------------------------------------------------|
E |-------------------------------------------------------------------------|
B |-----2-----------2-----------2-----------2-------------------------------|
    P   S       P   S       P   S       P   S




-----------------------------------------------------------------------------------------------

  P h a r m a e c o p i a

-----------------------------------------------------------------------------------------------



  INTRO:

    o . . . o . . . o . . . o . . . o . . . o . . . 
G |-------------------------------------------------|
D |-------------------------------------------------|
A |-------------------------------------------------|
E |-------------------------------------------------|
B |-----------------0-0---0---0-6-0-0---0---0-------|
      (guitar)      F F   F   F F F F   F   F


    o . . . o . . . o . . . o . . . o . . .
G |-----------------------------------------|
D |-----------------------------------------|
A |-----------------------------------------|
E |-----------------------------------------|
B |-----------------0-0---0---0-6-0-0-------|
      (guitar)      F F   F   F F F F


    o . . . o . . . o . . . o . . . o . . . o . . . 
G |-------------------------------------------------|
D |-------------------------------------------------|
A |-------------------------------------------------|
E |-------------------------------------------------|
B |-----------------0-0---0---0-6-0-0---0---0-------|
      (guitar)      F F   F   F F F F   F   F


    o . . . o . . . o . . . o . . . o . . .
G |---------x-------------------------------|
D |-----------------------------------------|
A |-----------------------------------------|
E |-----------------------------------------|
B |-x-----x---x-x---0-0---0---0-6-0-0-------|
    S     S P S S   F F   F   F F F F


    o . . . o . . . o . . . o . . . o . . . o . . . 
G |---------x---------------------------------------|
D |-------------------------------------------------|
A |-------------------------------------------------|
E |-------------------------------------------------|
B |-x-----x---x-x---0-0---0---0-6-0-0---0---0-------|
    S     S P S S   F F   F   F F F F   F   F


    o . . . o . . . o . . . o . . . o . . .
G |---------x-------------------------------|
D |-----------------------------------------|
A |-----------------------------------------|
E |-----------------------------------------|
B |-x-----x---x-x---0-0---0---0-6-0-0-----xx|
    S     S P S S   F F   F   F F F F     FF


    o . . . o . . . o . . . o . . . o . . . o . . . 
G |-------------------------------------------------|
D |-------------------------------------------------|
A |-------------------------------------------------|
E |-------------------------------------------------|
B |-x-x-x---x-x---xx0-0---0---0-6-0-0---0---0-------|
    S S S   S S   FFF F   F   F F F F   F   F


    o . . . o . . . o . . . o . . . o . . .
G |---------x-------------------------------|
D |-----------------------------------------|
A |-----------------------------------------|
E |-----------------------------------------|
B |-x-----x---x-x---0-0---0---0-6-0-0-15\\\-|
    S     S P S S   F F   F   F F F F F         


  CHORUS 1:

    o . o . o . o . o . o . o . o . o . o . o .
G |---------------------------------------------|
D |-----------------------4-----------------5/7-|
A |---------------------------------------------|  x4
E |-----------------------2-----------------3/5-|
B |-0---0---6p5-0---1p0-x---6p5-0---1p0-2p0-----|
    S   S   S   S   S   S P S   S   S   S   P


  FILL A:

    o . . . o . . . o . . . o . . . o . . . o . . . o . . . o . . . o . . . o . . . o . . . 
G |-----------------------------------------------------------------------------------------|
D |-----------------------------------------------------------------------------------------|
A |--------<7>-----<7>-----<7>-----<7>-----<7>-----<7>-----<7>-----<7>-----<7>-----<7>------|
E |-----------------------------------------------------------------------------------------|
B |-0---------------------------------------------------------------------------------------|
    s

  FILL B:

    o . . . o . . . o . . . o . . .
G |---------------------------------|
D |---------------------------------|
A |---------------------------------|
E |---------------------------------|
B |-3-5-5-3-2-3-2-0-2-----------12\-|
    F F F F F F F F F           S


  VERSE:

    o . . . o . . . o . . . o . . .
G |---------------------------------|
D |---------------------------0-0-0-|
A |-------------------------4-------|
E |---------------------------------|
B |-0-3-2-2-0-1-1-0-0-3-2-2---------|
    F F F F F F F F F F F F F F F F


    o . . . o . . . o . . . o . . .
G |---------------------------------|
D |-------------------------2p0-0-0-|
A |---------------------------------|
E |---------------------------------|
B |-0-3-2-2-0-1-1-0-0-3-2-2---------|
    F F F F F F F F F F F F F   F F


    o . . . o . . . o . . . o . . .
G |---------------------------------|
D |-------------------------2p0-0-0-|
A |---------------------------------|
E |---------------------------------|
B |-0-3-2-2-0-1-1-0-0-3-2-2---------|
    F F F F F F F F F F F F F   F F


    o . . . o . . . o . . . o . . .
G |---------------------------------|
D |---------------------------------|
A |-----------------4p5-4---2-------|  1st ENDING
E |---------------------------------|
B |-0-3-2-2-0-1-1-0-------------0---|
    F F F F F F F F F   F   F   S  


    o . . . o . . . o . . . o . . .
G |-----------------7\6-6-6-\-4-4---|
D |---------------------------------|
A |-----------------5\4-4-4-\-2-2---|  2nd ENDING
E |---------------------------------|
B |-0-3-2-2-0-1-1-0-----------------|
    F F F F F F F F 


  CHORUS 2:

    o . . . o . . . o . . . o . . .
G |---------------------------------|
D |---------------------------------|
A |---------------------------------|  x4
E |---------------------------------|
B |-3-2-0---0---3-2-0---0---3-2-0---|
    F F F   F   F F F   F   F F F


  FILL B:

    o . . . o . . . o . . . o . . .
G |---------------------------------|
D |---------------------------------|
A |---------------------------------|
E |---------------------------------|
B |-3-5-5-3-2-3-2-0-2-----------12\-|
    F F F F F F F F F           S


  VERSE:

    o . . . o . . . o . . . o . . .
G |---------------------------------|
D |---------------------------0-0-0-|
A |-------------------------4-------|
E |---------------------------------|
B |-0-3-2-2-0-1-1-0-0-3-2-2---------|
    F F F F F F F F F F F F F F F F


    o . . . o . . . o . . . o . . .
G |---------------------------------|
D |-------------------------2p0-0-0-|
A |---------------------------------|
E |---------------------------------|
B |-0-3-2-2-0-1-1-0-0-3-2-2---------|
    F F F F F F F F F F F F F F F F


    o . . . o . . . o . . . o . . .
G |---------------------------------|
D |-------------------------2p0-0-0-|
A |---------------------------------|
E |---------------------------------|
B |-0-3-2-2-0-1-1-0-0-3-2-2---------|
    F F F F F F F F F F F F F F F F


    o . . . o . . . o . . . o . . .
G |-----------------6/7-6-------7---|
D |---------------------------5-----|
A |-----------------4/5-4-------5---|  1st ENDING
E |---------------------------------|
B |-0-3-2-2-0-1-1-0-----------------|
    F F F F F F F S


    o . . . o . . . o . . . o . . .
G |-----------------117-7-7-6/7-6\4-|
D |---------------------------------|
A |---------------2/9\5-5-5-4/5-4\2-|  2nd ENDING
E |---------------------------------|
B |-0-3-2-2-0-1-1-------------------|
    F F F F F F F S


  CHORUS 1:

    o . o . o . o . o . o . o . o . o . o . o .
G |---------------------------------------------|
D |-----------------------4-----------------5/7-|
A |---------------------------------------------| x8
E |-----------------------2-----------------3/5-|
B |-0---0---6p5-0---1p0-x---6p5-0---1p0-2p0-----|
    S   S   S   S   S   S P S   S   S   S   P


  CHORUS 2:

    o . . . o . . . o . . . o . . .
G |---------------------------------|
D |---------------------------------|
A |---------------------------------|  x4
E |---------------------------------|
B |-3-2-0---0---3-2-0---0---3-2-0---|
    F F F   F   F F F   F   F F F


    o . . . o . . . o . . .
G |------------------------|
D |------------------------|
A |------------------------|  x3
E |------------------------|
B |-3-2-0---0---3-2-0---0--|
    F F F   F   F F F   F


  FILL C:

    o . . . o . . . o . . . o . . .
G |---------------------------------|
D |---------------------------------|
A |---------------------------------|
E |---------------------------------|
B |-3-2-3---0---3-2-3-2-3---0-------|
    F F F   F   F F F F F   F


    o . . . o . . . o . . . o . . .
G |---------------------------------|
D |-------------------------------4-|
A |---------------------------------|
E |-----------------------------0---|
B |-3-2-3---0---3-2-3-2-0---2h3-----|
    F F F   F   F F F F F   S   S P


  BRIDGE:

    o . . . o . . . o . . . o . . .
G |-------------11----11----12--11--|
D |-------------12----12----12--12--|
A |-------0-/-/-10----10----10--10--|
E |---------------------------------|
B |---------------------------------|


    o . . . o . . . o . . . o . . .
G |---------------------------------|
D |---------------------------------|
A |---------------------------------|
E |---------------------------------|
B |-0-------------------------------|
    S


    o . . . o . . . o . . . o . . . o . . . o . . . o . . . o . . . 
G |-11----11----12----11--------------------------------------------|
D |-12----12----12----12--------------------------------------------|
A |-10----10----10----10--------------------------------------------|
E |-----------------------------------------------------------------|
B |---------------------------------0-------------------------------|
                                    S


    o . . . o . . . o . . . o . . . o . . . o . . . o . . . o . . . 
G |-11----11----12----11----14--11----------------------------------|
D |-12----12----12----12----12--12----------------------------------|
A |-10----10----10----10----10--10----------------------------------|
E |-----------------------------------------------------------------|
B |---------------------------------0-----------0-0-0-0---0---0-0---|
                                    S           F F F F   F   F F


    o . . . o . . . o . . . o . . . o . . . o . . . o . . . o . . . 
G |-11----11----12----11----14--------------------------------------|
D |-12----12----12----12----12--------------------------------------|
A |-10----10----10----10----10--------------------------------------|
E |-----------------------------------------------------------------|
B |---------------------------------0-----------0-0-0-0---0---0-0---|
                                    S           F F F F   F   F F


    o . . . o . . . o . . . o . . . o . . . o . . . o . . . o . . . 
G |-11----11----12----11--------------------------------------------|
D |-12----12----12----12--------------------------------------------|
A |-10----10----10----10--------------------------------------------|
E |-----------------------------------------------------------------|
B |---------------------------------0-------------------------------|
                                    S

 
    o . . . o . . . o . . . o . . . o . . . o . . . o . . . o . . . 
G |---------------------------------11----11----12----11----14--11-|
D |---------------------------------12----12----12----12----12--12-|
A |-------------------4-----2-4-5-/-10----10----10----10----10--10-|
E |-3--------------------------------------------------------------|
B |-------2-----3--------------------------------------------------|
    S     S     S     P


    o . . . o . . . o . . . o . . . o . . . o . . . o . . . o . . . 
G |-----------------------9/11------11----11----12----11----14--11-|
D |---------------------------------12----12----12----12----12--12-|
A |-----------------------7/9-------10----10----10----10----10--10-|
E |----------------------------------------------------------------|
B |-0-------12\---x-0-0--------------------------------------------|
    S       S     S S S


    o . . . o . . . o . . . o . . . o . . . o . . . o . . . o . . . 
G |-------------------------4/7-----11----11----12----11----14--11-|
D |---------------------------------12----12----12----12----12--12-|
A |-------------------------2/5-----10----10----10----10----10--10-|
E |----------------------------------------------------------------|
B |-0-0-----------0-0-0--------------------------------------------|
    S S           S S S


    o . . . o . . . o . . . o . . . o . . . o . . . o . . . o . . . 
G |---------------------------7-7---11----11----12----11----14--11-|
D |---------------------------------12----12----12----12----12--12-|
A |---------------------------5-5---10----10----10----10----10--10-|
E |----------------------------------------------------------------|
B |-0-------x---0-0-0-0---0----------------------------------------|
    S       S   S S S S   S


  INTRO

    o . . . o . . . o . . . o . . . 
G |---------------------------------|
D |---------------------------------|
A |---------------------------------|
E |---------------------------------|
B |-0-0---0---0-6-0-0---0---0-------|
    s s   s   s s s s   s   s


    o . . . o . . . o . . . o . . . o . . .
G |---------x-------------------------------|
D |-----------------------------------------|
A |-----------------------------------------|
E |-----------------------------------------|
B |-x-----x---x-x---0-0---0---0-6-0-0-------|
    s     s p s s   s s   s   s s s s


    o . . . o . . . o . . . o . . . o . . . o . . . 
G |---------x---------------------------------------|
D |-------------------------------------------------|
A |-------------------------------------------------|
E |-------------------------------------------------|
B |-x-----x---x-x---0-0---0---0-6-0-0---0---0-------|
    s     s p s s   s s   s   s s s s   s   s


    o . . . o . . . o . . . o . . . o . . .
G |---------x-------------------------------|
D |-----------------------------------------|
A |-----------------------------------------|
E |-----------------------------------------|
B |-x-----x---x-x---0-0---0---0-6-0-0->-----|
    s     s p s s   s s   s   s s s s


    o . . . . . o . . . . .  
G |-------------------------|
D |-------------------------|
A |-------------------------|  RINGED
E |-------------------------|
B |-0---0---0---0---0---0---|
    S   S   S   S   S   S


    o . . . . . o . . . . . o . . . . . o . . . . .
G |-------------------------------------------------|
D |----------------------------(5)------------------|
A |-------------0h3---------2-----------------------|  x10
E |-----------------------2-------------3p2---------|
B |-0-----------------------------------------------|


    o . . . o . . . o . . . o . . .
G |---------------------------------|
D |---------------------------------|
A |-----------------1-1-------------|  x3
E |---------------------1-1-4-4-1---|
B |-1-0-0-0-2-3-0-0-----------------|
    F F F F F F F F F F F F F F F


    o . . . o . . . o . . . o . . .
G |---------------------------------|
D |---------------------------------|
A |---------------------------------|  x5
E |---------------------------------|
B |-1-0-0-0-2-3-0-0-1-0-0-0-2-------|
    F F F F F F F F F F F F F


  FILL C:

    o . . . o . . . o . . . o . . .
G |---------------------------------|
D |---------------------------------|
A |---------------------------------|
E |---------------------------------|
B |-3-2-3---0---3-2-3-2-3---0-------|
    F F F   F   F F F F F   F


    o . . . o . . . o . . . o . . .
G |---------------------------------|
D |-------------------------------4-|
A |---------------------------------|
E |-----------------------------0---|
B |-3-2-3---0---3-2-3-2-0---2h3-----|
    F F F   F   F F F F S   S   S P


  ENDING:

    o . . . o . . . o . . . o . . . o . . . o . . . o . . . o . . . 
G |-11----11----12----11----14--11----------------------------------|
D |-12----12----12----12----12--12----------------------------------|
A |-10----10----10----10----10--10----------------------------------|
E |-----------------------------------------------------------------|
B |---------------------------------0-------------------------------|





-----------------------------------------------------------------------------------------------

  U n d e r    M y    S k i n

-----------------------------------------------------------------------------------------------


  INTRO:

    o . . . o . . . o . . . o . . .
G |---------------------------------|
D |---------------------------------|
A |---------------------------------|
E |---------------------------------|
B |-0---0-------0-------0-------0---|
    S   S       S       S       S


  PRE:

    o . . . o . . . o . . . o . . .
G |---------------------------------|
D |---------------------------------|
A |---------------------------------|  x7
E |---------------------------------|
B |-3p2-0---0---3-2-0---0---3h5-0---|
    F F F   S   F F F   S   F F F


    o . . . o . . . o . . . o . . .
G |---------------------------------|
D |---------------------------------|
A |---------------------------------|
E |---------------------------------|
B |-3p2-0---0---3h5-0---------------|
    F F F   S   S   S


  VERSE:

    o . . . o . . . o . . . o . . . o . . . o . . . o . . . o . . .      _
G |-----------------------------------------------------------------|     |
D |-----7/9---------7/9-----------------7/9---------7/9-------------|     |
A |-----------------------------------------------------------------|     |
E |-----5/7---------5/7-----------------5/7---------5/7-------------|     |
B |-0-----------0-------------------0-----------0-------------------|     |
        P           P                   P           P                     |
                                                                          |  x2
                                                                          |
    o . . . o . . . o . . . o . . . o . . . o . . . o . . . o . . .       |
G |-----------------------------------------------------------------|     |
D |-----9/12--------9/12----------------9/12--------9/12------------|     |
A |-----------------------------------------------------------------|     |
E |-----7/10--------7/10----------------7/10--------7/10------------|     |
B |-0-----------0-------------------0-----------0-------------------|    _|
        P           P                   P           P


  CHORUS:

    o . . . o . . . o . . . o . . .      _
G |---------------------------------|     |
D |---------------------------------|     |
A |---------------------------------|  x3 |
E |---------------------------------|     |
B |-3p0-3p0-----3p0-3p0-----3p0-3p0-|     |
    S   S       S   S       S   S         |
                                          |  x2
                                          |
    o . . . o . . . o . . . o . . .       |
G |---------------------------------|     |
D |---------------------0-----------|     |
A |---------2-------------------0---|     |
E |---------------------------------|     |
B |-0---x-------0---x-x-----x-x-----|    _|
    S   S   P   S   S S P   S S P


  PRE:

    o . . . o . . . o . . . o . . .
G |---------------------------------|
D |---------------------------------|
A |---------------------------------|  x7
E |---------------------------------|
B |-3p2-0---0---3-2-0---0---3h5-0---|
    F F F   S   F F F   S   F F F


    o . . . o . . . o . . . o . . .
G |---------------------------------|
D |---------------------------------|
A |---------------------------------|
E |---------------------------------|
B |-3p2-0---0---3h5-0---------------|
    F F F   S   S   S


  VERSE:

    o . . . o . . . o . . . o . . . o . . . o . . . o . . . o . . .      _
G |-----------------------------------------------------------------|     |
D |-----7/9---------7/9-----------------7/9---------7/9-------------|     |
A |-----------------------------------------------------------------|     |
E |-----5/7---------5/7-----------------5/7---------5/7-------------|     |
B |-0-----------0-------------------0-----------0-------------------|     |
        P           P                   P           P                     |
                                                                          |  x2
                                                                          |
    o . . . o . . . o . . . o . . . o . . . o . . . o . . . o . . .       |
G |-----------------------------------------------------------------|     |
D |-----9/12--------9/12----------------9/12--------9/12------------|     |
A |-----------------------------------------------------------------|     |
E |-----7/10--------7/10----------------7/10--------7/10------------|     |
B |-0-----------0-------------------0-----------0-------------------|    _|
        P           P                   P           P


  CHORUS:

    o . . . o . . . o . . . o . . .
G |---------------------------------|
D |---------------------------------|
A |---------------------------------|  x3
E |---------------------------------|
B |-3p0-3p0-----3p0-3p0-----3p0-3p0-|
    S   S       S   S       S   S


    o . . . o . . . o . . . o . . .
G |---------------------------------|
D |---------------------0-----------|
A |---------2-------------------0---|
E |---------------------------------|
B |-0---x-------0---x-x-----x-x-----|
    S   S   P   S   S S P   S S P


    o . . . o . . . o . . . o . . .
G |---------------------------------|
D |---------------------------------|
A |---------------------------------|  x4
E |---------------------------------|
B |-3p0-3p0-----3p0-3p0-----3p0-3p0-|
    S   S       S   S       S   S


  RIFF 1:


    o . . . o . . . o . . . o . . .
G |---------------------------------|
D |---------------------------------|
A |---------------------------------|
E |---------------------------------|
B |-----------------------------12\-|


    o . . . o . . . o . . . o . . .
G |---------------------------------|
D |---------------------------------|
A |---------------------------------|  x8
E |---------------------------------|
B |-0h3h4-0h5h6-0h7h8-0h3h4-0h5h6---|
    S     S     S     S     S


  FUNKY PART:

    o . . . o . . . o . . . o . . . o . . . o . . . o . . . o . . . 
G |---------------------------------------------------0---2---5\3\--|
D |---------x---------x-------x-------------x-----------------4\2\--|
A |-----------------------------------------------------------------|
E |-----------------------------------------------------------------|
B |-0---0-x-----0-0-x---x-0-x-----x-0-----xx----0---x---x-----------|
    S   S S P   S S S P S S S P   S S     SSP   S   S P S P


    o . . . o . . . o . . . o . . . o . . . o . . . o . . . o . . . 
G |----------------------------------------------------5\\3---------|
D |---------x---------x-------x-------------x----------4\\2---------|
A |-----------------------------------------------------------------|
E |-x---0-x-----x-0-x---x-0-x---x-x-0---x-x-----0---x---------------|
B |---------------------------------------------------------x-------|
    S   S S P   S S S P S S S P S S S   S S P   S   S       S


    o . . . o . . . o . . . o . . . o . . . o . . . o . . . o . . . 
G |---------------------------------------------3///15--15----------|
D |-------------x-------x-------x-----------x---2///14--14----------|
A |-----------------------------------------------------------------|
E |-----------------------------------------------------------------|
B |-0-----x-0-x-----0-x-----0-x-----0-----x-----------x-----x-x-----|
    S     S S S P   S S P   S S P   S     S P         S     S S


    o . . . o . . . o . . . o . . . o . . . o . . . o . . . o . . . 
G |----------------------------<12>---------------------------------|
D |-----------x-------x---------<12>--------------------------------|
A |------------------------------<12>-------------------------------|
E |-------------------------------<12>------------------------------|
B |-x---0---x---0---x---0---0///---<12>---------------------\\\\\\\-|
    S   S   S P S   S P S


  RIFF 2:

    o . . . o . . . o . . . o . . .
G |---------------------------------|
D |---------------------------------|
A |---------------------------------|  x8
E |---------------------------------|
B |-6p5-0-6p5-0-5h6-0-5h6-0-3-------|
    F   F F   F F   F F   F F


    o . . . o . . . o . . . o . . .
G |---------------------------------|
D |---------------------------------|
A |-----2---------------------------|
E |---------------------------------|
B |-0-----------0-------0-------0---|
    S   S       S       S       S


  PRE:

    o . . . o . . . o . . . o . . .
G |-------------------------P-------|
D |---P--------------------(0h2)----|
A |--(4)----------------------------|  x7
E |---------------------------------|
B |-3p2-0---0---3p2-0---0---3h5-0---|
    S   S   S   S   S   S   S   S


    o . . . o . . . o . . . o . . .
G |---------------------------------|
D |---------------------------------|
A |---------------------------------|
E |---------------------------------|
B |-3p2-0---0---3h5-0---------------|
    S   S   S   S   S


  PRE END:

    o . . . o . . . o . . . o . . . o . . . o . . . o . . . o . . . 
G |-----------------------------------------------------------------|
D |-----------------------------------------------------------------|
A |-----------------------------------------------------------------|
E |-----------------------------------------------------------------|
B |-0-------2---0--/12~~~~~~~---0---0-------2---0--/13~~~~~~~-------|


    o . . . o . . . o . . . o . . . o . . . o . . . o . . . o . . . 
G |---------------------------------------4/5-----------6---7-------|
D |-------------------------------------4-----5-------6-------6-----|
A |-----------------------------------3---------4---5-----------6---|
E |-----------------------------------------------------------------|
B |-0-------2---0--/12~~~~~~~---0---0-------------------------------|


    o . . . o . . . o . . . o . . . o . . . o . . . o . . . o . . . 
G |-----------------------------------------------------------------|
D |-----------------------------------------------------------------|
A |-----------------------------------------------------------------|
E |-----------------------------------------------------------------|
B |-0-------2---0--/12~~~~~~~---0---0-------2---0--/13~~~~~~~-------|


    o . . . o . . . o . . . o . . . o . . . o . . . o . . . o . . . 
G |---------------------------------------3/4---------7-9-1010------|
D |------------------------------------1-------3----6---------9-----|
A |---------------------------------2-------------2-------------10--|
E |-----------------------------------------------------------------|
B |-0-------2---0--/12~~~~~~~---0-----------------------------------|


    o . . . o . . . o . . . o . . .
G |---------------------------------|
D |-------7\6---------7\6---x-------|
A |-------------------------x-------|  x4
E |-------5\4---------5\4---x-------|
B |-3p2-x-------3p2-x-------x-------|
    S   S P     S   S P     S


  CHORUS:

    o . . . o . . . o . . . o . . .
G |---------------------------------|
D |---------------------------------|
A |---------------------------------|  x3
E |---------------------------------|
B |-3p0-3p0-----3p0-3p0-----3p0-3p0-|
    S   S       S   S       S   S


    o . . . o . . . o . . . o . . .
G |---------------------------------|
D |---------------------0-----------|
A |---------2-------------------0---|
E |---------------------------------|
B |-0---x-------0---x-x-----x-x-----|
    S   S   P   S   S S P   S S P


    o . . . o . . . o . . . o . . .
G |---------------------------------|
D |---------------------------------|
A |---------------------------------|  x11
E |---------------------------------|
B |-3p0-3p0-----3p0-3p0-----3p0-3p0-|
    S   S       S   S       S   S


    o . . . o . . . o . . . o . . .
G |---------------------------------|
D |---------------------------------|
A |---------------------------------|
E |---------------------------------|
B |-3p0-3p0-----3p0-3p0-------------|
    S   S       S   S




-----------------------------------------------------------------------------------------------

  [ K ] n o w    F [ o r e v e r ]

-----------------------------------------------------------------------------------------------



  INTRO:

    o . . . o . . . 
G |-----------------|
D |-----------------|
A |-----------------|
E |-----------------|
B |---------3-3-----|
            S S


    o . . . o . . . o . . . o . . . 
G |---------------------------------|
D |---------------------------------|
A |---------------------------------|
E |---------------------------------|
B |---------3-3---------3-3---------|
            S S         S S


    o . . . o . . . o . . . o . . . 
G |---------------------------------|
D |---------------------------------|
A |---------------------------------|
E |---------------------------------|
B |-3-3-----3-3---------3-3---------|
    S S     S S         S S


    o . . . o . . . o . . . o . . . 
G |---------------------------------|
D |---------------------------------|
A |---------------------------------|
E |---------------------------------|
B |-3-3-----3-3-----3-3-3-3---------|
    S S     S S     S S S S


    o . . . o . . . o . . . o . . . 
G |---------------------------------|
D |---------------------------------|
A |---------------------------------|
E |---------------------------------|
B |-3-3-------0-3-3-3-3---3---------|
    F F       F F F F F   F


    o . . . o . . . o . . . o . . . 
G |---------------------------------|
D |---------------------------0-0-0-|
A |-------------------------2-------|
E |---------------------------------|
B |-3-3-------0-3-3-3-3---3---------|
    F F       F F F F F   F F F F F


    o . . . o . . . o . . . o . . . 
G |---------------------------------|
D |---------------------------------|
A |---------------------------------|
E |---------------------------------|
B |-3-3-------0-3-3-3-3---3-/-12~---|
    F F       F F F F F   S


    o . . . o . . . o . . . o . . . 
G |-----------------------109\------|
D |-----------------------109\------|
A |---------------------------------|
E |---------------------------------|
B |-3-3-------0-3-3-3-3/------------|
    S S       S S S S S


  PRE:

    o . . . o . . . o . . . o . . . 
G |---------------------------4-----|
D |---------------------------3-----|
A |---------5-5-----------------2-2-|
E |-----4-4-----4-4-----4-4---------|
B |-0-0-------------0-0-------------|
    F F F F F F F F F F F F   P S S


    o . . . o . . . o . . . o . . . 
G |---------------------------------|
D |---------------------------------|
A |---------5-5---------------6-----|
E |-----4-4-----4-4-----4-4-----7-5\|
B |-0-0-------------0-0-------------|
    F F F F F F F F F F F F   P S S


    o . . . o . . . o . . . o . . . 
G |---------------------------4-----|
D |---------------------------3-----|
A |---------5-5-----------------2-2-|
E |-----4-4-----4-4-----4-4---------|
B |-0-0-------------0-0-------------|
    F F F F F F F F F F F F   P S S


    o . . . o . . . o . . . o . . . 
G |-----------------9/A\9/A\9/A\9\--|  A=10
D |---------------------------------|
A |---------5-5-----7/8\7/8\7/8\7\--|
E |-----4-4-----4/------------------|
B |-0-0-----------------------------|
    F F F F F F S


  CHORUS:

    o . . . o . . . o . . . o . . . 
G |---------------------------------|
D |---------------------------------|
A |---------------------------------|
E |-5-------------------------------|
B |---5-0-5-6-0-6-5-0-0---0-0-------|
    F F F F F F F F F F   F F


    o . . . o . . . o . . . o . . . 
G |---------------------------------|
D |-------------------------6-6-6-6-|
A |---------------------------------|
E |-5-----------------------4-4-4-4-|
B |---5-0-5-6-0-6-5-0-0---0---------|
    F F F F F F F F F F   S F F F F


    o . . . o . . . o . . . o . . . 
G |---------------------------------|
D |---------------------------------|
A |---------------------------------|  x2
E |---------------------------------|
B |-0-0---0-0/12----0-0---0-12\-----|
    F F   F F       F F   F F


    o . . . o . . . o . . . o . . . 
G |---------------------------------|
D |---------------------------------|
A |---------------------------------|
E |---------------------------------|
B |-6-0---0---0-660---------0-------|
    F F   F   F FFF         S


  VERSE:

    o . . . o . . . o . . . o . . . o . . . o . . . o . . . o . . . 
G |-----------------------------------------------------------------|
D |-----------------------------------------------------------------|
A |-------------------0-----2---------------------------------------|
E |---------------------------4-----4-4-4-4-4-4-4-4-4---------------|
B |-0-0-0-0-0-0-1-1-1---------------------------------3-3-3-3h5-5-5-|
    F F F F F F F F F F     F F     F F F F F F F F F F F F F F F F


    o . . . o . . . o . . . o . . . o . . . o . . . o . . . o . . . 
G |-----------------------------------------------------------------|
D |---------------------------------0-0-0-0-0-0-0-0-0---------------|
A |-------------------0-----2---------------------------------------|
E |---------------------------4-------------------------------------|
B |-0-0-0-0-0-0-1-1-1---------------------------------3-3-3-3h5-5-5-|
    F F F F F F F F F F     F F     F F F F F F F F F F F F F F F F


    o . . . o . . . o . . . o . . . o . . . o . . . o . . . o . . . 
G |-----------------------------------------------------------------|
D |-----------------------------------------6-6---------6-6---------|
A |-0-2-2-2-2-2-3-3-3-0-0-0-2---------------5-5---------5-5---------|
E |---------------------------4-4-4-4-4-4-4-----4-4-4-4-----4-4-4-4-|
B |-----------------------------------------------------------------|
    F F F F F F F F F F F F F F F F F F F F     F F F F     F F F F


    o . . . o . . . o . . . o . . . o . . . o . . . o . . . o . . . 
G |-----------------------------------------------------------------|
D |---------------------------------6-6---------6-6---------6-6-----|
A |-0-2-2-2-2-2-3-3-3-0-0-0-2-------5-5---------5-5---------5-5-----|
E |---------------------------4-4-4-----4-4-4-4-----4-4-4-4-----4-4-|
B |-----------------------------------------------------------------|
    F F F F F F F F F F F F F F F F     F F F F     F F F F     F F


    o . . . o . . . o . . . o . . . o . . . o . . . o . . . o . . . 
G |-----------------------------------------------------------------|
D |-----------------------------------------------------------------|
A |-------------------0-----2---------------------------------------|
E |---------------------------4-----4-4-4-4-4-4-4-4-4---------------|
B |-0-0-0-0-0-0-1-1-1---------------------------------3-3-3-3h5-5-5-|
    F F F F F F F F F F     F F     F F F F F F F F F F F F F F F F


    o . . . o . . . o . . . o . . . o . . . o . . . o . . . o . . . 
G |-----------------------------------------------------------------|
D |-----------------------------------------6p0---------6p0-----6p0-|
A |-0-2-2-2-2-2-3-3-3-0-0-0-2---------------------------------------|
E |---------------------------4-4-4-4-4-4-x---------4-x-------------|
B |-----------------------------------------------------------------|
    F F F F F F F F F F F F F F F F F F F S P       S S P       P


  CHORUS:

    o . . . o . . . o . . . o . . . 
G |---------------------------------|
D |---------------------------------|
A |---------------------------------|
E |-5-------------------------------|
B |---5-0-5-6-0-6-5-0-0---0-0-------|
    F F F F F F F F F F   F F


    o . . . o . . . o . . . o . . . 
G |---------------------------------|
D |-------------------------6-6-6-6-|
A |---------------------------------|
E |-5-----------------------4-4-4-4-|
B |---5-0-5-6-0-6-5-0-0---0---------|
    F F F F F F F F F F   S F F F F


    o . . . o . . . o . . . o . . . 
G |---------------------------------|
D |---------------------------------|
A |---------------------------------|  x2
E |---------------------------------|
B |-0-0---0-0/12----0-0---0-12\-----|
    F F   F F       F F   F F


    o . . . o . . . o . . . o . . .     _
G |---------------------------------|    |
D |---------------------------------|    |
A |---------------------------------|    |
E |-5-------------------------------|    |
B |---5-0-5-6-0-6-5-0-0---0-0-------|    |
    F F F F F F F F F F   F F            |
                                         |  x2
                                         |
    o . . . o . . . o . . . o . . . |    |
G |---------------------------------|    |
D |-------------------------6-6-6-6-|    |
A |---------------------------------|    |
E |-5-----------------------4-4-4-4-|    |
B |---5-0-5-6-0-6-5-0-0---0---------|   _|
    F F F F F F F F F F   S F F F F


  VERSE:

    o . . . o . . . o . . . o . . . o . . . o . . . o . . . o . . . 
G |-----------------------------------------------------------------|
D |-----------------------------------------6-6---------6-6---------|
A |-0-2-2-2-2-2-3-3-3-0-0-0-2---------------5-5---------5-5---------|
E |---------------------------4-4-4-4-4-4-4-----4-4-4-4-----4-4-4-4-|
B |-----------------------------------------------------------------|
    F F F F F F F F F F F F F F F F F F F F     F F F F     F F F F


    o . . . o . . . o . . . o . . . o . . . o . . . o . . . o . . . 
G |-----------------------------------------------------------------|
D |---------------------------------6-6---------6-6---------6-6-----|
A |-0-2-2-2-2-2-3-3-3-0-0-0-2-------5-5---------5-5---------5-5-----|
E |---------------------------4-4-4-----4-4-4-4-----4-4-4-4-----4-4-|
B |-----------------------------------------------------------------|
    F F F F F F F F F F F F F F F F     F F F F     F F F F     F F


    o . . . o . . . o . . . o . . . o . . . o . . . o . . . o . . . 
G |-----------------------------------------------------------------|
D |---------------------------------0-0-0-0-0-0-0-0-0---------------|
A |-----------------------------------------------------------------|
E |-----------------------------------------------------------------|
B |-5-3-0-----0-3-----------3---5---------------------0-3-5-5-0-3-5-|
    F F F     F F           F   F   F F F F F F F F F F F F F F F F


    o . . . o . . . o . . . o . . . o . . . o . . . o . . . o . . . 
G |-----------------------------------------------------------------|
D |-----------------------------------------6p0---------6p0-----6p0-|
A |-0-2-2-2-2-2-3-3-3-0-0-0-2---------------------------------------|
E |---------------------------4-4-4-4-4-4-x---------4-x-------------|
B |-----------------------------------------------------------------|
    F F F F F F F F F F F F F F F F F F F S P       S S P       P


  CHORUS:

    o . . . o . . . o . . . o . . . 
G |---------------------------------|
D |---------------------------------|
A |---------------------------------|
E |-5-------------------------------|
B |---5-0-5-6-0-6-5-0-0---0-0-------|
    F F F F F F F F F F   F F


    o . . . o . . . o . . . o . . . 
G |---------------------------------|
D |-------------------------6-6-6-6-|
A |---------------------------------|
E |-5-----------------------4-4-4-4-|
B |---5-0-5-6-0-6-5-0-0---0---------|
    F F F F F F F F F F   S F F F F


  BRIDGE [strum all]:

    o . . . o . . . o . . . o . . . o . . . o . . . o . . . o . . . 
G |-----------------------------------------------------------------|
D |-6-6-6-6-6-6-7-7-7-7-7-7-7-7-7-7-9-9-9-9-9-9-7-7-7-7-7-7-7-7-7-7-|
A |-----------------------------------------------------------------|  x2
E |-4-4-4-4-4-4-5-5-5-5-5-5-5-5-5-5-7-7-7-7-7-7-5-5-5-5-5-5-5-5-5-5-|
B |-----------------------------------------------------------------|


    o . . . o . . . o . . . o . . . o . . . o . . . o . . . o . . . 
G |-----------------------------------------------------------------|
D |-6-6-6-6-9-6-6-6-6-7-7-7-7-7-7-7-9-9-9-9-109-9-9-9-7-7-7-7-7-7-7-|
A |-----------------------------------------------------------------|  x3
E |-4-4-4-4-7-4-4-4-4-5-5-5-5-5-5-5-7-7-7-7-8-7-7-7-7-5-5-5-5-5-5-5-|
B |-----------------------------------------------------------------|


  CHORUS:

    o . . . o . . . o . . . o . . .     _
G |---------------------------------|    |
D |---------------------------------|    |
A |---------------------------------|    |
E |-5-------------------------------|    |
B |---5-0-5-6-0-6-5-0-0---0-0-------|    |
    F F F F F F F F F F   F F            |
                                         |  x3
                                         |
    o . . . o . . . o . . . o . . .      |
G |---------------------------------|    |
D |-------------------------6/7-7/9-|    |
A |---------------------------------|    |
E |-5-----------------------4/5-5/7-|    |
B |---5-0-5-6-0-6-5-0-0---0---------|   _|
    F F F F F F F F F F   S P   P


    o . . . o . . . o . . . o . . . 
G |---------------------------------|
D |-------------------------6-6-6-6-|
A |---------------------------------|
E |-5-----------------------4-4-4-4-|
B |---5-0-5-6-0-6-5-0-0---0---------|
    F F F F F F F F F F   S F F F F


    o . . . o . . . o . . . o . . . 
G |---------------------------------|
D |---------------------------------|
A |---------------------------------|
E |---------------------------------|
B |-6-0---0---0-660---------0-------|
    F F   F   F FFF         S


  BRIDGE 2:

    o . . . o . . . o . . . o . . . o . . . o . 
G |---------------------------------------------|
D |---------------------------------------------|
A |---------------------------------------------|  x2
E |---------------------------------------------|
B |-0-0-0-0---------0-0-0-----0-0-------0-------|
    S S S S         S S S     S S       S


    o . . . o . . . o . . . o . . . o . . . o . 
G |---------------------------------------------|
D |---------------------------------------------|
A |---------------------------------------------|
E |---------------------------------------------|
B |-0-0-0-0---------0-0-0-----0-0---------------|
    S S S S         S S S     S S


    o . . . o . . . o . . . o . . . 
G |---------------------------------|
D |---------------------------------|
A |---------------------------------|  x2
E |---------------------------------|
B |-6-0-0-0---0-0---0-0---0-0---0-0-|
    S S S S   S S   S S   S S   S S


    o . . . o . . . o . . . o . . . o . . . o . . . o . . . o . . . 
G |----------------------------------------------------------------|
D |----------------------------------------------------------------|
A |----------------------------------------------------------------|  x2
E |----------------------------------------------------------------|
B |-0-0-0-0---0-0-/-12~~~~--10~~~~--0-0-0-0---0-0-/-9~~~~---10~~~~-|
    S S S S   S S   F       F       S S S S   S S   F       F


  [strum all]

    o . . . o . . . o . . . o . . . o . . . o . . . o . . . o . . . 
G |-----------------------------------------------------------------|
D |-6-6-6-6-9-6-6-6-6-7-7-7-7-7-7-7-9-9-9-9-109-9-9-9-7-7-7-7-7-7-7-|
A |-----------------------------------------------------------------|  x2
E |-4-4-4-4-7-4-4-4-4-5-5-5-5-5-5-5-7-7-7-7-8-7-7-7-7-5-5-5-5-5-5-5-|
B |-----------------------------------------------------------------|


    o . . . o . . . o . . . o . . . o . . . o . . . o . . . o . . . 
G |-----------------4-4-4-4-5-5-5-5-----------------4-4-4-4-2-2-2-2-|      <
D |-----------------4-4-4-4-5-5-5-5-----------------4-4-4-4-2-2-2-2-|      <  strum
A |-----------------2-2-2-2-3-3-3-3-----------------2-2-2-2-0-0-0-0-|  x2  <
E |-----------------------------------------------------------------|
B |-6-0-0-0---0-0-------------------6-0-0-0---0-0-------------------|
    S S S S   S S                   S S S S   S S

    o . . . o . . . o . . .
G |-------------------------|
D |-------6-----------------|
A |-------5-----------------|
E |-4---------4-4-----------|
B |-------------------------|


  MID PART:

    o . . . o . . . o . . . o . . . o . . . o . . . o . . . o . . . 
G |-----------------------------------------------------------------|
D |-6-----6-///-12----12--------------------------------------------|      <
A |-6-----6-///-12----12--------------------------------------------|  x4  <  strum
E |-4-----4-///-10----10--------------------------------------------|      <
B |-------------------------0---0-3-2-0-2---0-3-2-0-2---0-3-2-0-2-0-|
                            F   F F F F F   F F F F F   F F F F F F


    o . . . o . . . o . . . o . . .
G |---------------------------------|
D |---------------------------------|
A |-11--------------------------11\-|
E |---------------------------------|
B |-9---------------------------9-\-|


    o . . . o . . . o . . . o . . .
G |---------------------------------|
D |-----------------------------7---|
A |-------5/11\---------------6-----|  x3
E |-4-----------4-4---4-4-4-5-------|
B |---------------------------------|
                F F   F F F


    o . . . o . . . o . . . o . . .
G |---------------------------------|
D |-------------------------9\7-9\7-|
A |-------5/11\---------------------|
E |-4-----------4-4---4-4-4-7\5-7\5-|
B |---------------------------------|
                F F   F F F


    o . . . o . . . o . . . o . . .
G |---------------------------------|
D |-----------------------------7---|
A |-------5/11\---------------6-----|  x4
E |-4-----------4-4---4-4-4-5-------|
B |---------------------------------|
                F F   F F F


    o . . . o . . . o . . .
G |-------1-----1-----------|
D |-------0-----0-----------|
A |-------------------------|
E |-4-----------------------|
B |-------------------------|
    S     P     P


  VERSE:

    o . . . o . . . o . . . o . . . o . . . o . . . o . . . o . . . 
G |-----------------------------------------------------------------|
D |-----------------------------------------------------------------|
A |-------------------0-----2---------------------------------------|  x2
E |---------------------------4-----4-4-4-4-4-4-4-4-4---------------|
B |-0-0-0-0-0-0-1-1-1---------------------------------3-3-3-3h5-5-5-|
    F F F F F F F F F F     F F     F F F F F F F F F F F F F F F F


    o . . . o . . . o . . . o . . . o . . . o . . . o . . . o . . . 
G |-----------------------------------------------------------------|
D |-----------------------------------------6-6---------6-6---------|
A |-0-2-2-2-2-2-3-3-3-0-0-0-2---------------5-5---------5-5---------|
E |---------------------------4-4-4-4-4-4-4-----4-4-4-4-----4-4-4-4-|
B |-----------------------------------------------------------------|
    F F F F F F F F F F F F F F F F F F F F     F F F F     F F F F


    o . . . o . . . o . . . o . . . o . . . o . . . o . . . o . . . 
G |-----------------------------------------------------------------|
D |---------------------------------6-6---------6-6---------6-6-----|
A |-0-2-2-2-2-2-3-3-3-0-0-0-2-------5-5---------5-5---------5-5-----|
E |---------------------------4-4-4-----4-4-4-4-----4-4-4-4-----4-4-|
B |-----------------------------------------------------------------|
    F F F F F F F F F F F F F F F F     F F F F     F F F F     F F


    o . . . o . . . o . . . o . . . o . . . o . . . o . . . o . . . 
G |-----------------------------------------------------------------|
D |-----------------------------------------------------------------|
A |-------------------0-----2---------------------------------------|
E |---------------------------4-------------------------------------|
B |-0-0-0-0-0-0-1-1-1---------------0-0-0-0-------------------------|
    F F F F F F F F F F     F F     S S S S


    o . . . o . . . o . . . o . . . o . . . o . . . o . . . o . . . 
G |-----------------------------------------------------------------|
D |-----------------------------------------------------------------|
A |-0-2-2-2-2-2-3-3-3-0-0-0-2---------------------------------------|
E |---------------------------4-4-4---------------------------------|
B |---------------------------------0-0-0-0-----------------12~~~\--|
    F F F F F F F F F F F F F F F F S S S S                 S


    o . . . o . . . o . . . o . . . o . . . o . . . o . . . o . . . 
G |-----------------------------------------------------------------|
D |-----------------------------------------------------------------|
A |-0-2-2-2-2-2-3-3-3-0-0-0-2---------------------------------------|
E |---------------------------4-4-4---------------------------------|
B |---------------------------------0-0-0-0-----0-----0-----0-------|
    F F F F F F F F F F F F F F F F S S S S     S     S     S


    o . . . o . . . o . . . o . . .
G |---------------------------------|
D |---------------------------------|
A |-0-2-2-2-2-2-3-3-3-0-0-0-2-------|
E |---------------------------4-4-4-|
B |---------------------------------|
    F F F F F F F F F F F F F F F F


    o . . . o . . . o . . . o . . . o . . . o . 
G |---------------------------------------------|
D |---------------------------------------------|
A |---------------------------------------------|  x2
E |---------------------------------------------|
B |-0-0-0-0---------0-0-0-----0-0-------0-------|
    S S S S         S S S     S S       S


CHORUS:


    o . . . o . . . o . . . o . . .     _
G |---------------------------------|    |
D |---------------------------------|    |
A |---------------------------------|    |
E |-5-------------------------------|    |
B |---5-0-5-6-0-6-5-0-0---0-0-------|    |
    F F F F F F F F F F   F F            |
                                         |  x2
                                         |
    o . . . o . . . o . . . o . . . |    |
G |---------------------------------|    |
D |-----------------------6-6-6-6-6-|    |
A |---------------------------------|    |
E |-5---------------------4-4-4-4-4-|    |
B |---5-0-5-6-0-6-5-0-0-------------|   _|
    F F F F F F F F F F   F F F F F


    o . . . o . . . o . . . o . . . 
G |---------------------------------|
D |---------------------------------|
A |---------------------------------|  X2
E |---------------------------------|
B |-0-0---0-0/12----0-0---0-12\-----|
    S S   S S       S S   S S


    o . . . o . . . o . . . o . . . 
G |---------------------------------|
D |---------------------------------|
A |---------------------------------|
E |---------------------------------|
B |-6-0---0---0-660-----------------|
    F F   F   F FFF


  OUTRO:

    o . . . o . . . o . . . o . . .
G |---------------------------------|
D |-----------------------------6---|
A |-----------------------------5---|
E |-----------------------------4---|
B |-3-2-1-3-2-1-3-0-3-2-1-3-2-1-----|
    F F F F F F F F F F F F F F P


    o . . . o . . . o . . . o . . . o
G |-----------------------------------|
D |-----------------------------------|
A |-----------------------------------|
E |-----------------------------------|
B |-3-2-1-3-2-1-3-0-320-0-320-0-320-0-|
    F F F F F F F F FFF F FFF F FFF F




-----------------------------------------------------------------------------------------------

  L e t h a l    D o s a g e

-----------------------------------------------------------------------------------------------



  apparently no bass line



            
            
Suggest correction
Creating personal tab
Creating personal tab
You can edit any tab online and save it as your Personal.

You can edit, replace or remove any tab part or add personal notes – all changes will be seen only by you.

Personal tabs can be accessed anytime from any device, even offline.
Learn more »
comments
print report bad tab
6 comments total. Showing first comments.
0 reply
BushMasterFlex 41 Jun 08, 2010 07:18 AM

wow! this is ****n insane! i have no idea how hard this must have been! tabing all of LD50 is something that deserves major recognition man. kick ass!

Mu Dv Ay Ne 4 ever!

0 reply
hadeniguess 10 Jun 18, 2010 01:45 PM

finally!!!!!!!!!!! -1 btab!

On an unrelated note, the cardinals suck!

0 reply
musiktrooper 507 Jul 06, 2010 07:21 AM

thanks a lot guys,
some tabs in this LD50-bass-tab are my 100% interpretation, some tabs are my corrected versions of other tabs, anyway was not easy for sure. but funny :)

guest
You may want to rate the tab now too:
select rating
Wanna post a correction for this tab? Suggest correction