Oops, an error
Loading. Please wait.

Never Enough tab

version 2
version 2

Whole song

Interactive

553 views 1 this week
no commentswrite comment
1 2 3 4 5
2 more votes to show rating
add to favorites
×
Save as Personal and add changes to this tab that will be seen only by you. Learn more ›
×
You can save this tab as Personal to edit and correct it or add notes. All changes will be seen only by you. Learn more »
launch autoscroll
font size
0
reset
how to read this tab
guitar tuner
edit
Autoscroll
slow
fast
+/-
esc
set tempo
stop
                         Mudvayne - Never Enough
Tabbed by: MayhemX666 (Brandon)
E-mail: hockeyfan0113@aim.com

Tuning: THIS IS IN DROP C

Intro: acoustic-y part. Find the strumming pattern.

e|----------------------------------------------|
B|----------------------------------------------|
G|---10---9----5----(5)----10----9-----5-----7--|
D|---10---9----5-----3-----10----9-----5-----7--|
A|---8----7----3-----3-----8-----7-----3-----5--|
E|-------------------3--------------------------|

Chorus - Distortion: Once again, find the pattern

e|-----------------------------------------------------------------------|
B|-----------------------------------------------------------------------|
G|--------------------------(10)-------------------------------(10)-(7)--|
D|-000---000---000---000-----8--------000---000---000---000-----8----5---|
A|-000---000---000---000-----8--------000---000---000---000-----8----5---|
E|-000---000---000---000-----8--------000---000---000---000-----8----5---|

Bridge: This part was tricky so it may not be 100% right. Bare with me. Again, find the pattern

e|-------|
B|-------|
G|-------|
D|---10--|
A|---8---| A bunch of times
E|---8---|

e|----------------------------------------------|
B|----------------------------------------------|
G|---7/9/10-----7-------------------------------|
D|---7/9/8------x- Strum that a bunch of times--|
A|---5/7/8------5-------------------------------|
E|----------------------------------------------|

Find the pattern. I'm only making you do this because it would take even longer to tab.

e|--------------------------------|
B|--------------------------------|
G|-----7---------------7\5-----5--|
D|-----7 Xwhatever-----7\5-----5--|Find the pattern for that.
A|-----5---------------5\3-----3--|
E|--------------------------------|

Go back to the chorus. Find the pattern for that then you're good to go!! If you have 
any corrections, please
leave a comment or something. Rate!


************************************
()- Optional
/- Slide down
\- Slide up
************************************

            
            
Suggest correction
Creating personal tab
Creating personal tab
You can edit any tab online and save it as your Personal.

You can edit, replace or remove any tab part or add personal notes – all changes will be seen only by you.

Personal tabs can be accessed anytime from any device, even offline.
Learn more »
Give kudos to tab author, rate the tab!
1 2 3 4 5
comments
print report bad tab
guest
You may want to rate the tab now too:
select rating
Wanna post a correction for this tab? Suggest correction